  0
SECTION
  2
HEADER
  9
$ACADVER
  1
AC1015
  9
$ACADMAINTVER
 70
     6
  9
$DWGCODEPAGE
  3
ANSI_1250
  9
$INSBASE
 10
0.0
 20
0.0
 30
0.0
  9
$EXTMIN
 10
-105.875562755
 20
23.15324123095201
 30
0.0
  9
$EXTMAX
 10
89.16751156933475
 20
54.3694574472
 30
0.0
  9
$LIMMIN
 10
0.0
 20
0.0
  9
$LIMMAX
 10
420.0
 20
297.0
  9
$ORTHOMODE
 70
     0
  9
$REGENMODE
 70
     1
  9
$FILLMODE
 70
     1
  9
$QTEXTMODE
 70
     0
  9
$MIRRTEXT
 70
     1
  9
$LTSCALE
 40
1.0
  9
$ATTMODE
 70
     1
  9
$TEXTSIZE
 40
3.5
  9
$TRACEWID
 40
1.0
  9
$TEXTSTYLE
  7
Standard
  9
$CLAYER
  8
0
  9
$CELTYPE
  6
ByLayer
  9
$CECOLOR
 62
   256
  9
$CELTSCALE
 40
1.0
  9
$DISPSILH
 70
     0
  9
$DIMSCALE
 40
1.0
  9
$DIMASZ
 40
3.302
  9
$DIMEXO
 40
1.0
  9
$DIMDLI
 40
3.75
  9
$DIMRND
 40
0.0
  9
$DIMDLE
 40
0.0
  9
$DIMEXE
 40
1.0
  9
$DIMTP
 40
0.0
  9
$DIMTM
 40
0.0
  9
$DIMTXT
 40
3.5
  9
$DIMCEN
 40
2.5
  9
$DIMTSZ
 40
0.0
  9
$DIMTOL
 70
     0
  9
$DIMLIM
 70
     0
  9
$DIMTIH
 70
     1
  9
$DIMTOH
 70
     1
  9
$DIMSE1
 70
     0
  9
$DIMSE2
 70
     0
  9
$DIMTAD
 70
     1
  9
$DIMZIN
 70
     0
  9
$DIMBLK
  1

  9
$DIMASO
 70
     1
  9
$DIMSHO
 70
     1
  9
$DIMPOST
  1

  9
$DIMAPOST
  1

  9
$DIMALT
 70
     0
  9
$DIMALTD
 70
     3
  9
$DIMALTF
 40
0.0393700787
  9
$DIMLFAC
 40
1.0
  9
$DIMTOFL
 70
     1
  9
$DIMTVP
 40
0.0
  9
$DIMTIX
 70
     0
  9
$DIMSOXD
 70
     0
  9
$DIMSAH
 70
     0
  9
$DIMBLK1
  1

  9
$DIMBLK2
  1

  9
$DIMSTYLE
  2
ISO-25
  9
$DIMCLRD
 70
     0
  9
$DIMCLRE
 70
     0
  9
$DIMCLRT
 70
     0
  9
$DIMTFAC
 40
1.0
  9
$DIMGAP
 40
1.524
  9
$DIMJUST
 70
     0
  9
$DIMSD1
 70
     0
  9
$DIMSD2
 70
     0
  9
$DIMTOLJ
 70
     0
  9
$DIMTZIN
 70
     0
  9
$DIMALTZ
 70
     0
  9
$DIMALTTZ
 70
     0
  9
$DIMUPT
 70
     0
  9
$DIMDEC
 70
     2
  9
$DIMTDEC
 70
     2
  9
$DIMALTU
 70
     2
  9
$DIMALTTD
 70
     3
  9
$DIMTXSTY
  7
Standard
  9
$DIMAUNIT
 70
     0
  9
$DIMADEC
 70
     2
  9
$DIMALTRND
 40
0.0
  9
$DIMAZIN
 70
     0
  9
$DIMDSEP
 70
    44
  9
$DIMATFIT
 70
     3
  9
$DIMFRAC
 70
     0
  9
$DIMLDRBLK
  1

  9
$DIMLUNIT
 70
     2
  9
$DIMLWD
 70
    -2
  9
$DIMLWE
 70
    -2
  9
$DIMTMOVE
 70
     0
  9
$LUNITS
 70
     2
  9
$LUPREC
 70
     2
  9
$SKETCHINC
 40
1.0
  9
$FILLETRAD
 40
10.0
  9
$AUNITS
 70
     0
  9
$AUPREC
 70
     2
  9
$MENU
  1
.
  9
$ELEVATION
 40
0.0
  9
$PELEVATION
 40
0.0
  9
$THICKNESS
 40
0.0
  9
$LIMCHECK
 70
     0
  9
$CHAMFERA
 40
10.0
  9
$CHAMFERB
 40
10.0
  9
$CHAMFERC
 40
20.0
  9
$CHAMFERD
 40
0.0
  9
$SKPOLY
 70
     0
  9
$TDCREATE
 40
2456766.433655706
  9
$TDUCREATE
 40
2456766.350322373
  9
$TDUPDATE
 40
2456766.494380428
  9
$TDUUPDATE
 40
2456766.411047095
  9
$TDINDWG
 40
0.0195782755
  9
$TDUSRTIMER
 40
2456766.403613252
  9
$USRTIMER
 70
     1
  9
$ANGBASE
 50
0.0
  9
$ANGDIR
 70
     0
  9
$PDMODE
 70
     0
  9
$PDSIZE
 40
-1.0
  9
$PLINEWID
 40
0.0
  9
$SPLFRAME
 70
     0
  9
$SPLINETYPE
 70
     6
  9
$SPLINESEGS
 70
     8
  9
$HANDSEED
  5
17D
  9
$SURFTAB1
 70
     6
  9
$SURFTAB2
 70
     6
  9
$SURFTYPE
 70
     6
  9
$SURFU
 70
     6
  9
$SURFV
 70
     6
  9
$UCSBASE
  2

  9
$UCSNAME
  2

  9
$UCSORG
 10
0.0
 20
0.0
 30
0.0
  9
$UCSXDIR
 10
1.0
 20
0.0
 30
0.0
  9
$UCSYDIR
 10
0.0
 20
1.0
 30
0.0
  9
$UCSORTHOREF
  2

  9
$UCSORTHOVIEW
 70
     0
  9
$UCSORGTOP
 10
0.0
 20
0.0
 30
0.0
  9
$UCSORGBOTTOM
 10
0.0
 20
0.0
 30
0.0
  9
$UCSORGLEFT
 10
0.0
 20
0.0
 30
0.0
  9
$UCSORGRIGHT
 10
0.0
 20
0.0
 30
0.0
  9
$UCSORGFRONT
 10
0.0
 20
0.0
 30
0.0
  9
$UCSORGBACK
 10
0.0
 20
0.0
 30
0.0
  9
$PUCSBASE
  2

  9
$PUCSNAME
  2

  9
$PUCSORG
 10
0.0
 20
0.0
 30
0.0
  9
$PUCSXDIR
 10
1.0
 20
0.0
 30
0.0
  9
$PUCSYDIR
 10
0.0
 20
1.0
 30
0.0
  9
$PUCSORTHOREF
  2

  9
$PUCSORTHOVIEW
 70
     0
  9
$PUCSORGTOP
 10
0.0
 20
0.0
 30
0.0
  9
$PUCSORGBOTTOM
 10
0.0
 20
0.0
 30
0.0
  9
$PUCSORGLEFT
 10
0.0
 20
0.0
 30
0.0
  9
$PUCSORGRIGHT
 10
0.0
 20
0.0
 30
0.0
  9
$PUCSORGFRONT
 10
0.0
 20
0.0
 30
0.0
  9
$PUCSORGBACK
 10
0.0
 20
0.0
 30
0.0
  9
$USERI1
 70
     0
  9
$USERI2
 70
     0
  9
$USERI3
 70
     0
  9
$USERI4
 70
     0
  9
$USERI5
 70
     0
  9
$USERR1
 40
0.0
  9
$USERR2
 40
0.0
  9
$USERR3
 40
0.0
  9
$USERR4
 40
0.0
  9
$USERR5
 40
0.0
  9
$WORLDVIEW
 70
     1
  9
$SHADEDGE
 70
     3
  9
$SHADEDIF
 70
    70
  9
$TILEMODE
 70
     1
  9
$MAXACTVP
 70
    64
  9
$PINSBASE
 10
0.0
 20
0.0
 30
0.0
  9
$PLIMCHECK
 70
     0
  9
$PEXTMIN
 10
1.000000000000000E+20
 20
1.000000000000000E+20
 30
1.000000000000000E+20
  9
$PEXTMAX
 10
-1.000000000000000E+20
 20
-1.000000000000000E+20
 30
-1.000000000000000E+20
  9
$PLIMMIN
 10
0.0
 20
0.0
  9
$PLIMMAX
 10
0.0
 20
0.0
  9
$UNITMODE
 70
     0
  9
$VISRETAIN
 70
     1
  9
$PLINEGEN
 70
     0
  9
$PSLTSCALE
 70
     1
  9
$TREEDEPTH
 70
  3020
  9
$CMLSTYLE
  2
Standard
  9
$CMLJUST
 70
     0
  9
$CMLSCALE
 40
20.0
  9
$PROXYGRAPHICS
 70
     1
  9
$MEASUREMENT
 70
     1
  9
$CELWEIGHT
370
    -1
  9
$ENDCAPS
280
     0
  9
$JOINSTYLE
280
     0
  9
$LWDISPLAY
290
     1
  9
$INSUNITS
 70
     4
  9
$HYPERLINKBASE
  1

  9
$STYLESHEET
  1

  9
$XEDIT
290
     1
  9
$CEPSNTYPE
380
     0
  9
$PSTYLEMODE
290
     1
  9
$FINGERPRINTGUID
  2
{D35C5928-B048-464F-86A4-9084EBCDD53A}
  9
$VERSIONGUID
  2
{83B20FBE-4D1B-4342-80C1-57A7BD76BCC4}
  9
$EXTNAMES
290
     1
  9
$PSVPSCALE
 40
0.0
  9
$OLESTARTUP
290
     0
  0
ENDSEC
  0
SECTION
  2
CLASSES
  0
CLASS
  1
ACDBDICTIONARYWDFLT
  2
AcDbDictionaryWithDefault
  3
ObjectDBX Classes
 90
        0
280
     0
281
     0
  0
CLASS
  1
VISUALSTYLE
  2
AcDbVisualStyle
  3
ObjectDBX Classes
 90
     4095
280
     0
281
     0
  0
CLASS
  1
MATERIAL
  2
AcDbMaterial
  3
ObjectDBX Classes
 90
     1153
280
     0
281
     0
  0
CLASS
  1
ACDBPLACEHOLDER
  2
AcDbPlaceHolder
  3
ObjectDBX Classes
 90
        0
280
     0
281
     0
  0
CLASS
  1
LAYOUT
  2
AcDbLayout
  3
ObjectDBX Classes
 90
        0
280
     0
281
     0
  0
CLASS
  1
TABLESTYLE
  2
AcDbTableStyle
  3
ObjectDBX Classes
 90
     4095
280
     0
281
     0
  0
CLASS
  1
DICTIONARYVAR
  2
AcDbDictionaryVar
  3
ObjectDBX Classes
 90
        0
280
     0
281
     0
  0
CLASS
  1
SORTENTSTABLE
  2
AcDbSortentsTable
  3
ObjectDBX Classes
 90
        0
280
     0
281
     0
  0
CLASS
  1
SCALE
  2
AcDbScale
  3
ObjectDBX Classes
 90
     1153
280
     0
281
     0
  0
CLASS
  1
SUN
  2
AcDbSun
  3
SCENEOE
 90
     1153
280
     0
281
     0
  0
CLASS
  1
RASTERVARIABLES
  2
AcDbRasterVariables
  3
ISM
 90
        0
280
     0
281
     0
  0
ENDSEC
  0
SECTION
  2
TABLES
  0
TABLE
  2
VPORT
  5
8
330
0
100
AcDbSymbolTable
 70
     1
  0
VPORT
  5
110
330
8
100
AcDbSymbolTableRecord
100
AcDbViewportTableRecord
  2
*Active
 70
     0
 10
0.0
 20
0.0
 11
1.0
 21
1.0
 12
-4.253079077105696
 22
46.98038230198539
 13
0.0
 23
0.0
 14
10.0
 24
10.0
 15
10.0
 25
10.0
 16
0.0
 26
0.0
 36
1.0
 17
0.0
 27
0.0
 37
0.0
 40
168.9482593419059
 41
1.938084112149532
 42
50.0
 43
0.0
 44
0.0
 50
0.0
 51
0.0
 71
    16
 72
   100
 73
     1
 74
     3
 75
     0
 76
     0
 77
     0
 78
     0
281
     0
 65
     1
110
0.0
120
0.0
130
0.0
111
1.0
121
0.0
131
0.0
112
0.0
122
1.0
132
0.0
 79
     0
146
0.0
  0
ENDTAB
  0
TABLE
  2
LTYPE
  5
5
330
0
100
AcDbSymbolTable
 70
     6
  0
LTYPE
  5
14
330
5
100
AcDbSymbolTableRecord
100
AcDbLinetypeTableRecord
  2
ByBlock
 70
     0
  3

 72
    65
 73
     0
 40
0.0
  0
LTYPE
  5
15
330
5
100
AcDbSymbolTableRecord
100
AcDbLinetypeTableRecord
  2
ByLayer
 70
     0
  3

 72
    65
 73
     0
 40
0.0
  0
LTYPE
  5
16
330
5
100
AcDbSymbolTableRecord
100
AcDbLinetypeTableRecord
  2
Continuous
 70
     0
  3
Solid line
 72
    65
 73
     0
 40
0.0
  0
LTYPE
  5
3F
330
5
100
AcDbSymbolTableRecord
100
AcDbLinetypeTableRecord
  2
HIDDEN
 70
     0
  3
Hidden __ __ __ __ __ __ __ __ __ __ __ __ __ __
 72
    65
 73
     2
 40
1.905
 49
1.27
 74
     0
 49
-0.635
 74
     0
  0
LTYPE
  5
40
330
5
100
AcDbSymbolTableRecord
100
AcDbLinetypeTableRecord
  2
PHANTOM
 70
     0
  3
Phantom ______  __  __  ______  __  __  ______
 72
    65
 73
     6
 40
12.7
 49
6.349999999999999
 74
     0
 49
-1.27
 74
     0
 49
1.27
 74
     0
 49
-1.27
 74
     0
 49
1.27
 74
     0
 49
-1.27
 74
     0
  0
LTYPE
  5
41
330
5
100
AcDbSymbolTableRecord
100
AcDbLinetypeTableRecord
  2
CENTER
 70
     0
  3
Center ____ _ ____ _ ____ _ ____ _ ____ _ ____
 72
    65
 73
     4
 40
10.16
 49
6.349999999999999
 74
     0
 49
-1.27
 74
     0
 49
1.27
 74
     0
 49
-1.27
 74
     0
  0
LTYPE
  5
42
330
5
100
AcDbSymbolTableRecord
100
AcDbLinetypeTableRecord
  2
CENTERX2
 70
     0
  3
Center (2x) ________  __  ________  __  _____
 72
    65
 73
     4
 40
20.32
 49
12.7
 74
     0
 49
-2.54
 74
     0
 49
2.54
 74
     0
 49
-2.54
 74
     0
  0
LTYPE
  5
43
330
5
100
AcDbSymbolTableRecord
100
AcDbLinetypeTableRecord
  2
DOT2
 70
     0
  3
Dot (.5x) ........................................
 72
    65
 73
     2
 40
0.635
 49
0.0
 74
     0
 49
-0.635
 74
     0
  0
ENDTAB
  0
TABLE
  2
LAYER
  5
2
330
0
100
AcDbSymbolTable
 70
     1
  0
LAYER
  5
10
330
2
100
AcDbSymbolTableRecord
100
AcDbLayerTableRecord
  2
0
 70
     0
 62
     7
  6
Continuous
370
    -3
390
F
  0
ENDTAB
  0
TABLE
  2
STYLE
  5
3
330
0
100
AcDbSymbolTable
 70
     1
  0
STYLE
  5
11
330
3
100
AcDbSymbolTableRecord
100
AcDbTextStyleTableRecord
  2
Standard
 70
     0
 40
0.0
 41
1.0
 50
0.0
 71
     0
 42
3.5
  3
txt
  4

  0
ENDTAB
  0
TABLE
  2
VIEW
  5
6
330
0
100
AcDbSymbolTable
 70
     0
  0
ENDTAB
  0
TABLE
  2
UCS
  5
7
330
0
100
AcDbSymbolTable
 70
     0
  0
ENDTAB
  0
TABLE
  2
APPID
  5
9
330
0
100
AcDbSymbolTable
 70
     1
  0
APPID
  5
12
330
9
100
AcDbSymbolTableRecord
100
AcDbRegAppTableRecord
  2
ACAD
 70
     0
  0
ENDTAB
  0
TABLE
  2
DIMSTYLE
  5
A
330
0
100
AcDbSymbolTable
 70
     1
100
AcDbDimStyleTable
  0
DIMSTYLE
105
27
330
A
100
AcDbSymbolTableRecord
100
AcDbDimStyleTableRecord
  2
ISO-25
 70
     0
 41
2.5
 42
0.625
 43
3.75
 44
1.25
 73
     0
 74
     0
 77
     1
 78
     8
140
2.5
141
2.5
143
0.0393700787
147
0.625
171
     3
172
     1
178
     0
271
     2
272
     2
274
     3
278
    44
283
     0
284
     8
340
11
  0
ENDTAB
  0
TABLE
  2
BLOCK_RECORD
  5
1
330
0
100
AcDbSymbolTable
 70
     1
  0
BLOCK_RECORD
  5
1F
102
{ACAD_XDICTIONARY
360
104
102
}
330
1
100
AcDbSymbolTableRecord
100
AcDbBlockTableRecord
  2
*Model_Space
340
22
  0
BLOCK_RECORD
  5
1B
330
1
100
AcDbSymbolTableRecord
100
AcDbBlockTableRecord
  2
*Paper_Space
340
1E
  0
BLOCK_RECORD
  5
23
330
1
100
AcDbSymbolTableRecord
100
AcDbBlockTableRecord
  2
*Paper_Space0
340
26
  0
ENDTAB
  0
ENDSEC
  0
SECTION
  2
BLOCKS
  0
BLOCK
  5
20
330
1F
100
AcDbEntity
  8
0
100
AcDbBlockBegin
  2
*Model_Space
 70
     0
 10
0.0
 20
0.0
 30
0.0
  3
*Model_Space
  1
*Model_Space
  0
ENDBLK
  5
21
330
1F
100
AcDbEntity
  8
0
100
AcDbBlockEnd
  0
BLOCK
  5
1C
330
1B
100
AcDbEntity
 67
     1
  8
0
100
AcDbBlockBegin
  2
*Paper_Space
 70
     0
 10
0.0
 20
0.0
 30
0.0
  3
*Paper_Space
  1
*Paper_Space
  0
ENDBLK
  5
1D
330
1B
100
AcDbEntity
 67
     1
  8
0
100
AcDbBlockEnd
  0
BLOCK
  5
24
330
23
100
AcDbEntity
  8
0
100
AcDbBlockBegin
  2
*Paper_Space0
 70
     0
 10
0.0
 20
0.0
 30
0.0
  3
*Paper_Space0
  1
*Paper_Space0
  0
ENDBLK
  5
25
330
23
100
AcDbEntity
  8
0
100
AcDbBlockEnd
  0
ENDSEC
  0
SECTION
  2
ENTITIES
  0
SPLINE
  5
44
330
1F
100
AcDbEntity
  8
0
  6
Continuous
 62
     7
370
    15
100
AcDbSpline
210
0.0
220
0.0
230
1.0
 70
     8
 71
     3
 72
    15
 73
    11
 74
     0
 42
0.000000001
 43
0.0000000001
 40
0.0
 40
0.0
 40
0.0
 40
0.0
 40
0.1204772050284049
 40
0.2399332016877189
 40
0.3570945823470037
 40
0.4775371160125094
 40
0.5997581305439988
 40
0.7266730571277998
 40
0.859547023092055
 40
1.0
 40
1.0
 40
1.0
 40
1.0
 10
13.56700481257803
 20
52.91253177149254
 30
0.0
 10
13.64792636341913
 20
52.78320438123902
 30
0.0
 10
13.8090835447653
 20
52.52564582647232
 30
0.0
 10
13.99941202055376
 20
52.11425513632272
 30
0.0
 10
14.13512481857366
 20
51.68184922875628
 30
0.0
 10
14.21308968207456
 20
51.23254106466214
 30
0.0
 10
14.25657404335228
 20
50.76572578506972
 30
0.0
 10
14.2299741951648
 20
50.28212396511353
 30
0.0
 10
14.17240691513753
 20
49.77800949593643
 30
0.0
 10
14.08632414193342
 20
49.4425818815604
 30
0.0
 10
14.04208927203748
 20
49.27021758230336
 30
0.0
  0
SPLINE
  5
45
330
1F
100
AcDbEntity
  8
0
  6
Continuous
 62
     7
370
    15
100
AcDbSpline
210
0.0
220
0.0
230
1.0
 70
     8
 71
     3
 72
    15
 73
    11
 74
     0
 42
0.000000001
 43
0.0000000001
 40
0.0
 40
0.0
 40
0.0
 40
0.0
 40
0.1331559951476568
 40
0.2579520463998033
 40
0.3804820276348025
 40
0.5003941009758907
 40
0.620677037284961
 40
0.7428429771670522
 40
0.8682028465255177
 40
1.0
 40
1.0
 40
1.0
 40
1.0
 10
10.7735081909564
 20
54.36945744716823
 30
0.0
 10
10.91938479695354
 20
54.36376179393211
 30
0.0
 10
11.2019794258855
 20
54.35272807812974
 30
0.0
 10
11.6157533286142
 20
54.29078103811308
 30
0.0
 10
12.00214028403444
 20
54.1747870284151
 30
0.0
 10
12.3691274079172
 20
54.01801397885924
 30
0.0
 10
12.70369690913851
 20
53.80219260096329
 30
0.0
 10
13.02619575340937
 20
53.55873090346835
 30
0.0
 10
13.31167956593648
 20
53.25396619858938
 30
0.0
 10
13.4804878325137
 20
53.0282268541801
 30
0.0
 10
13.56700481257803
 20
52.91253177149254
 30
0.0
  0
LINE
  5
46
330
1F
100
AcDbEntity
  8
0
  6
Continuous
 62
     7
370
    15
100
AcDbLine
 10
6.4407379207
 20
54.3694574472
 30
0.0
 11
10.773508191
 21
54.3694574472
 31
0.0
  0
SPLINE
  5
47
330
1F
100
AcDbEntity
  8
0
  6
Continuous
 62
     7
370
    15
100
AcDbSpline
210
0.0
220
0.0
230
1.0
 70
     8
 71
     3
 72
    23
 73
    19
 74
     0
 42
0.000000001
 43
0.0000000001
 40
0.0
 40
0.0
 40
0.0
 40
0.0
 40
0.0603762528863925
 40
0.1185815272120574
 40
0.1751113758375335
 40
0.2306154185943602
 40
0.2855033765945875
 40
0.3409089866244919
 40
0.3965802305965479
 40
0.4533600627284351
 40
0.5114498968497176
 40
0.5721733490969463
 40
0.6350922719487972
 40
0.7010537963681834
 40
0.7702815129309447
 40
0.8430773820227241
 40
0.9197011913298194
 40
1.0
 40
1.0
 40
1.0
 40
1.0
 10
-6.557572890124692
 20
46.53373109581687
 30
0.0
 10
-6.464195778892435
 20
46.85243141419015
 30
0.0
 10
-6.280799163050661
 20
47.47837238715488
 30
0.0
 10
-5.90978478509009
 20
48.36891901888598
 30
0.0
 10
-5.469643732384221
 20
49.19597140837357
 30
0.0
 10
-4.970110066059483
 20
49.96740124067361
 30
0.0
 10
-4.394854649609836
 20
50.67675049769722
 30
0.0
 10
-3.747338973818552
 20
51.3215772893395
 30
0.0
 10
-3.033910154712538
 20
51.90918073310982
 30
0.0
 10
-2.25126136212373
 20
52.42811529358786
 30
0.0
 10
-1.400801336832065
 20
52.88722334015456
 30
0.0
 10
-0.4828577089898806
 20
53.28465753467405
 30
0.0
 10
0.5052775325247452
 20
53.61923280743416
 30
0.0
 10
1.558756916514053
 20
53.89866997594017
 30
0.0
 10
2.682934159288284
 20
54.11217117197871
 30
0.0
 10
3.876094726278803
 20
54.26253872039518
 30
0.0
 10
5.136619345209227
 20
54.35054337886189
 30
0.0
 10
5.999297324634592
 20
54.36305508641366
 30
0.0
 10
6.440737920686127
 20
54.36945744716823
 30
0.0
  0
SPLINE
  5
48
330
1F
100
AcDbEntity
  8
0
  6
Continuous
 62
     7
370
    15
100
AcDbSpline
210
0.0
220
0.0
230
1.0
 70
     8
 71
     3
 72
    23
 73
    19
 74
     0
 42
0.000000001
 43
0.0000000001
 40
0.0
 40
0.0
 40
0.0
 40
0.0
 40
0.0464168029596136
 40
0.0974353251501282
 40
0.1523745392282598
 40
0.2122399283911456
 40
0.2762305779260546
 40
0.3448816534026367
 40
0.4182466990434874
 40
0.4963907893350891
 40
0.5745348796266915
 40
0.6483700407160792
 40
0.7179614980659591
 40
0.7829106504637253
 40
0.8432798761557329
 40
0.8996197866638302
 40
0.9516445951540831
 40
1.0
 40
1.0
 40
1.0
 40
1.0
 10
-7.330376944178749
 20
33.13634933906012
 30
0.0
 10
-7.278724925691386
 20
33.33840078036657
 30
0.0
 10
-7.170300155024705
 20
33.76253485737039
 30
0.0
 10
-7.064573865447632
 20
34.43928167302442
 30
0.0
 10
-6.972263526161972
 20
35.17829667383951
 30
0.0
 10
-6.920172159962137
 20
35.97988058616338
 30
0.0
 10
-6.888019765376977
 20
36.84381804106419
 30
0.0
 10
-6.883648995008579
 20
37.76901926330702
 30
0.0
 10
-6.900311681112605
 20
38.75770283162928
 30
0.0
 10
-6.956597178487267
 20
39.78753122510925
 30
0.0
 10
-7.013272696049014
 20
40.81947096393904
 30
0.0
 10
-7.029161085767717
 20
41.81448421199367
 30
0.0
 10
-7.026875635108514
 20
42.7503558541658
 30
0.0
 10
-6.987721354041403
 20
43.62497125144831
 30
0.0
 10
-6.925219230587816
 20
44.43847675188847
 30
0.0
 10
-6.839088302345966
 20
45.19144292041952
 30
0.0
 10
-6.722006789246277
 20
45.88614454315319
 30
0.0
 10
-6.611031959711392
 20
46.32319437092499
 30
0.0
 10
-6.557572890124692
 20
46.53373109581687
 30
0.0
  0
SPLINE
  5
49
330
1F
100
AcDbEntity
  8
0
  6
Continuous
 62
     7
370
    15
100
AcDbSpline
210
0.0
220
0.0
230
1.0
 70
     8
 71
     3
 72
    15
 73
    11
 74
     0
 42
0.000000001
 43
0.0000000001
 40
0.0
 40
0.0
 40
0.0
 40
0.0
 40
0.1234892621517877
 40
0.2451672370565001
 40
0.3661171367473356
 40
0.4888174993725596
 40
0.6116569803531601
 40
0.736689599106582
 40
0.8665730666617754
 40
1.0
 40
1.0
 40
1.0
 40
1.0
 10
-10.87767424147604
 20
27.96109596068175
 30
0.0
 10
-10.66304721904119
 20
28.11511482950373
 30
0.0
 10
-10.23694123078664
 20
28.42089348479476
 30
0.0
 10
-9.662043354775856
 20
28.95420647397961
 30
0.0
 10
-9.129648141090886
 20
29.52632376826789
 30
0.0
 10
-8.655582836185069
 20
30.15189674069661
 30
0.0
 10
-8.243835885993146
 20
30.82973089150354
 30
0.0
 10
-7.879554032556263
 20
31.55102804004597
 30
0.0
 10
-7.567828616199673
 20
32.32188740020032
 30
0.0
 10
-7.410234435975294
 20
32.86243723287222
 30
0.0
 10
-7.330376944178749
 20
33.13634933906012
 30
0.0
  0
SPLINE
  5
4A
330
1F
100
AcDbEntity
  8
0
  6
Continuous
 62
     7
370
    15
100
AcDbSpline
210
0.0
220
0.0
230
1.0
 70
     8
 71
     3
 72
    15
 73
    11
 74
     0
 42
0.000000001
 43
0.0000000001
 40
0.0
 40
0.0
 40
0.0
 40
0.0
 40
0.1273858879367748
 40
0.2529980555860416
 40
0.3778280346219353
 40
0.5010561987205391
 40
0.6233222912521871
 40
0.747309135515648
 40
0.8728051159653574
 40
1.0
 40
1.0
 40
1.0
 40
1.0
 10
-15.93257289012469
 20
26.39648447419526
 30
0.0
 10
-15.70440103520363
 20
26.40202347629811
 30
0.0
 10
-15.2512343888076
 20
26.41302435547399
 30
0.0
 10
-14.5767946070374
 20
26.48082511807349
 30
0.0
 10
-13.91926743526455
 20
26.61036878930853
 30
0.0
 10
-13.27803891383791
 20
26.78158955349907
 30
0.0
 10
-12.65058317706536
 20
26.99534807754526
 30
0.0
 10
-12.04470198794861
 20
27.27312619405022
 30
0.0
 10
-11.44538362455777
 20
27.58500462175322
 30
0.0
 10
-11.0677569951144
 20
27.83517153622534
 30
0.0
 10
-10.87767424147604
 20
27.96109596068175
 30
0.0
  0
SPLINE
  5
4B
330
1F
100
AcDbEntity
  8
0
  6
Continuous
 62
     7
370
    15
100
AcDbSpline
210
0.0
220
0.0
230
1.0
 70
     8
 71
     3
 72
    11
 73
     7
 74
     0
 42
0.000000001
 43
0.0000000001
 40
0.0
 40
0.0
 40
0.0
 40
0.0
 40
0.2407635873385605
 40
0.4847726947346029
 40
0.7360349821206047
 40
1.0
 40
1.0
 40
1.0
 40
1.0
 10
-19.75225194417875
 20
27.44800474446553
 30
0.0
 10
-19.47426227318621
 20
27.28325748296209
 30
0.0
 10
-18.91453559937677
 20
26.95154214846319
 30
0.0
 10
-17.97329875729968
 20
26.64379829081157
 30
0.0
 10
-16.97731457280298
 20
26.4255125039318
 30
0.0
 10
-16.28649739471234
 20
26.4063182266089
 30
0.0
 10
-15.93257289012469
 20
26.39648447419526
 30
0.0
  0
SPLINE
  5
4C
330
1F
100
AcDbEntity
  8
0
  6
Continuous
 62
     7
370
    15
100
AcDbSpline
210
0.0
220
0.0
230
1.0
 70
     8
 71
     3
 72
    15
 73
    11
 74
     0
 42
0.000000001
 43
0.0000000001
 40
0.0
 40
0.0
 40
0.0
 40
0.0
 40
0.136604362005383
 40
0.2634526857501632
 40
0.3834546311198433
 40
0.4991061104080843
 40
0.6156140146931318
 40
0.7359262212839786
 40
0.8621279609828926
 40
1.0
 40
1.0
 40
1.0
 40
1.0
 10
-21.22184653877334
 20
31.24234596068175
 30
0.0
 10
-21.26828137311475
 20
31.04694467996937
 30
0.0
 10
-21.35783474930291
 20
30.6700973271691
 30
0.0
 10
-21.38559262799966
 20
30.10589278947359
 30
0.0
 10
-21.34390466163518
 20
29.5724597998946
 30
0.0
 10
-21.18695861529987
 20
29.07724103958622
 30
0.0
 10
-20.96970414780426
 20
28.60513969556734
 30
0.0
 10
-20.6430295429097
 20
28.17999065453752
 30
0.0
 10
-20.23655702008497
 20
27.78600630783792
 30
0.0
 10
-19.91837415611792
 20
27.5639431686938
 30
0.0
 10
-19.75225194417875
 20
27.44800474446553
 30
0.0
  0
SPLINE
  5
4D
330
1F
100
AcDbEntity
  8
0
  6
Continuous
 62
     7
370
    15
100
AcDbSpline
210
0.0
220
0.0
230
1.0
 70
     8
 71
     3
 72
    15
 73
    11
 74
     0
 42
0.000000001
 43
0.0000000001
 40
0.0
 40
0.0
 40
0.0
 40
0.0
 40
0.1345614966810865
 40
0.2632181621254644
 40
0.3883222184950721
 40
0.5100583149336562
 40
0.6310937661493398
 40
0.7513803102037101
 40
0.8741165771278131
 40
1.0
 40
1.0
 40
1.0
 40
1.0
 10
-18.52336680904361
 20
34.47925474446552
 30
0.0
 10
-18.69436715443521
 20
34.38552497740049
 30
0.0
 10
-19.02886400343708
 20
34.20217849544381
 30
0.0
 10
-19.4870935485964
 20
33.87413407604077
 30
0.0
 10
-19.90093914846996
 20
33.52053819668156
 30
0.0
 10
-20.26747406512249
 20
33.13185630087611
 30
0.0
 10
-20.57470928246806
 20
32.70404103211073
 30
0.0
 10
-20.84713307017241
 20
32.25173694305187
 30
0.0
 10
-21.0621178253687
 20
31.76084566888203
 30
0.0
 10
-21.16815620485041
 20
31.41663160963511
 30
0.0
 10
-21.22184653877333
 20
31.24234596068174
 30
0.0
  0
SPLINE
  5
4E
330
1F
100
AcDbEntity
  8
0
  6
Continuous
 62
     7
370
    15
100
AcDbSpline
210
0.0
220
0.0
230
1.0
 70
     8
 71
     3
 72
    11
 73
     7
 74
     0
 42
0.000000001
 43
0.0000000001
 40
0.0
 40
0.0
 40
0.0
 40
0.0
 40
0.2552820941658447
 40
0.5035961565008054
 40
0.7515709255997263
 40
1.0
 40
1.0
 40
1.0
 40
1.0
 10
-15.00140734958415
 20
35.31540339311418
 30
0.0
 10
-15.31261254228256
 20
35.30679291707557
 30
0.0
 10
-15.92652845141873
 20
35.28980699155325
 30
0.0
 10
-16.8285121281511
 20
35.12016663373584
 30
0.0
 10
-17.70316419971246
 20
34.86981121477587
 30
0.0
 10
-18.24979918043845
 20
34.6095196402409
 30
0.0
 10
-18.52336680904361
 20
34.47925474446552
 30
0.0
  0
LINE
  5
4F
330
1F
100
AcDbEntity
  8
0
  6
Continuous
 62
     7
370
    15
100
AcDbLine
 10
-9.9845154577
 20
35.3154033931
 30
0.0
 11
-15.0014073496
 21
35.3154033931
 31
0.0
  0
LINE
  5
50
330
1F
100
AcDbEntity
  8
0
  6
Continuous
 62
     7
370
    15
100
AcDbLine
 10
-10.3392451874
 20
38.5586466364
 30
0.0
 11
-9.9845154577
 21
35.3154033931
 31
0.0
  0
LINE
  5
51
330
1F
100
AcDbEntity
  8
0
  6
Continuous
 62
     7
370
    15
100
AcDbLine
 10
-16.7687215388
 20
38.5586466364
 30
0.0
 11
-10.3392451874
 21
38.5586466364
 31
0.0
  0
SPLINE
  5
52
330
1F
100
AcDbEntity
  8
0
  6
Continuous
 62
     7
370
    15
100
AcDbSpline
210
0.0
220
0.0
230
1.0
 70
     8
 71
     3
 72
    23
 73
    19
 74
     0
 42
0.000000001
 43
0.0000000001
 40
0.0
 40
0.0
 40
0.0
 40
0.0
 40
0.0609227165691746
 40
0.1194408705525531
 40
0.1766173582910647
 40
0.2323810875505043
 40
0.287624884607273
 40
0.3428633328156954
 40
0.398667670808903
 40
0.4552919833586077
 40
0.513489469013511
 40
0.5741009895074051
 40
0.6371262825876306
 40
0.702796491709611
 40
0.7714753681133342
 40
0.8439772641693334
 40
0.9200910410791566
 40
1.0
 40
1.0
 40
1.0
 40
1.0
 10
-27.98071478201658
 20
31.72376487960067
 30
0.0
 10
-27.89905109031176
 20
32.00202056402464
 30
0.0
 10
-27.73894689635836
 20
32.54754944151744
 30
0.0
 10
-27.41852719048679
 20
33.32607326762027
 30
0.0
 10
-27.03902949913702
 20
34.04939245211013
 30
0.0
 10
-26.5988499683915
 20
34.71915094161592
 30
0.0
 10
-26.10228596635222
 20
35.33613687637089
 30
0.0
 10
-25.55007319524704
 20
35.90460689080815
 30
0.0
 10
-24.93223061727804
 20
36.41169519655136
 30
0.0
 10
-24.25576293603147
 20
36.86231681123954
 30
0.0
 10
-23.52287255629708
 20
37.26394342471922
 30
0.0
 10
-22.72900403507818
 20
37.61003950000457
 30
0.0
 10
-21.87855596964816
 20
37.90896568372741
 30
0.0
 10
-20.96965508673572
 20
38.14862038084646
 30
0.0
 10
-20.00182453907177
 20
38.33064169040543
 30
0.0
 10
-18.97594139611503
 20
38.46110337470702
 30
0.0
 10
-17.89137376233856
 20
38.54678752955395
 30
0.0
 10
-17.14895858369328
 20
38.55463001248076
 30
0.0
 10
-16.76872153877335
 20
38.55864663635742
 30
0.0
  0
SPLINE
  5
53
330
1F
100
AcDbEntity
  8
0
  6
Continuous
 62
     7
370
    15
100
AcDbSpline
210
0.0
220
0.0
230
1.0
 70
     8
 71
     3
 72
    23
 73
    19
 74
     0
 42
0.000000001
 43
0.0000000001
 40
0.0
 40
0.0
 40
0.0
 40
0.0
 40
0.0724443445642374
 40
0.1421254340641658
 40
0.2080911852797281
 40
0.2718348473744714
 40
0.3322665012155452
 40
0.3913869745059161
 40
0.4491811045679488
 40
0.505841280606963
 40
0.5626351652401615
 40
0.6195723130639916
 40
0.6774975342770714
 40
0.7376916432204964
 40
0.7991557612092061
 40
0.8630842517076079
 40
0.9299971304948492
 40
1.0
 40
1.0
 40
1.0
 40
1.0
 10
-24.74380599823279
 20
24.76852839311417
 30
0.0
 10
-24.92445086426788
 20
24.86355670180872
 30
0.0
 10
-25.27885023320596
 20
25.04998864073833
 30
0.0
 10
-25.77798488973144
 20
25.35845416854083
 30
0.0
 10
-26.2326354303735
 20
25.68934064442919
 30
0.0
 10
-26.63616614160521
 20
26.04265758720419
 30
0.0
 10
-26.99500044115965
 20
26.41468969208933
 30
0.0
 10
-27.3129954990754
 20
26.80060515217408
 30
0.0
 10
-27.58874355640411
 20
27.20579356024327
 30
0.0
 10
-27.80856338650528
 20
27.63600058777559
 30
0.0
 10
-27.99692327867676
 20
28.07834902264579
 30
0.0
 10
-28.12787746285709
 20
28.54500554475943
 30
0.0
 10
-28.21769336088449
 20
29.03049982858554
 30
0.0
 10
-28.26068532228689
 20
29.53536257418423
 30
0.0
 10
-28.25972083954309
 20
30.05865831216166
 30
0.0
 10
-28.21635722237649
 20
30.59935430842521
 30
0.0
 10
-28.11786026358883
 20
31.15719990671205
 30
0.0
 10
-28.02711262360238
 20
31.53208964860663
 30
0.0
 10
-27.98071478201658
 20
31.72376487960067
 30
0.0
  0
SPLINE
  5
54
330
1F
100
AcDbEntity
  8
0
  6
Continuous
 62
     7
370
    15
100
AcDbSpline
210
0.0
220
0.0
230
1.0
 70
     8
 71
     3
 72
    15
 73
    11
 74
     0
 42
0.000000001
 43
0.0000000001
 40
0.0
 40
0.0
 40
0.0
 40
0.0
 40
0.1418590558968973
 40
0.2777718741594188
 40
0.4088377430555198
 40
0.5346461542519167
 40
0.65712842865035
 40
0.7742375872270367
 40
0.8884273511801858
 40
1.0
 40
1.0
 40
1.0
 40
1.0
 10
-16.85106951174631
 20
23.15324123095201
 30
0.0
 10
-17.23549342803891
 20
23.15786575790572
 30
0.0
 10
-17.98822754871365
 20
23.16692096774701
 30
0.0
 10
-19.09387912714746
 20
23.24494389967791
 30
0.0
 10
-20.1512981579943
 20
23.3694274079817
 30
0.0
 10
-21.16427931759372
 20
23.54744867419036
 30
0.0
 10
-22.12858502151914
 20
23.77416072580648
 30
0.0
 10
-23.04854543045348
 20
24.04560411035246
 30
0.0
 10
-23.91913672015353
 20
24.37358595223537
 30
0.0
 10
-24.47104889044451
 20
24.63790226118424
 30
0.0
 10
-24.74380599823279
 20
24.76852839311417
 30
0.0
  0
SPLINE
  5
55
330
1F
100
AcDbEntity
  8
0
  6
Continuous
 62
     7
370
    15
100
AcDbSpline
210
0.0
220
0.0
230
1.0
 70
     8
 71
     3
 72
    15
 73
    11
 74
     0
 42
0.000000001
 43
0.0000000001
 40
0.0
 40
0.0
 40
0.0
 40
0.0
 40
0.1237858257811981
 40
0.2474457350648954
 40
0.3709729620042879
 40
0.4939680282487111
 40
0.6186596583092314
 40
0.7440725290007616
 40
0.8712625526637722
 40
1.0
 40
1.0
 40
1.0
 40
1.0
 10
-7.286035727962534
 20
25.31962636608715
 30
0.0
 10
-7.655834200651747
 20
25.14659024762317
 30
0.0
 10
-8.395054982376799
 20
24.80069402520929
 30
0.0
 10
-9.53606772501627
 20
24.35611837392114
 30
0.0
 10
-10.70233860553195
 20
23.99326139163589
 30
0.0
 10
-11.88762467996362
 20
23.68528207530477
 30
0.0
 10
-13.09509379164008
 20
23.44485943871058
 30
0.0
 10
-14.32812826149744
 20
23.27438782920936
 30
0.0
 10
-15.58234559491892
 20
23.16991086079583
 30
0.0
 10
-16.42646027227223
 20
23.15882012700373
 30
0.0
 10
-16.85106951174631
 20
23.15324123095201
 30
0.0
  0
SPLINE
  5
56
330
1F
100
AcDbEntity
  8
0
  6
Continuous
 62
     7
370
    15
100
AcDbSpline
210
0.0
220
0.0
230
1.0
 70
     8
 71
     3
 72
     8
 73
     4
 74
     0
 42
0.000000001
 43
0.0000000001
 40
0.0
 40
0.0
 40
0.0
 40
0.0
 40
0.0301634091273931
 40
0.0301634091273931
 40
0.0301634091273931
 40
0.0301634091273931
 10
0.239302109875314
 20
34.14352839311418
 30
0.0
 10
0.2048642588213339
 20
34.0280359024994
 30
0.0
 10
0.170426407767354
 20
33.91254341188461
 30
0.0
 10
0.1355156036131487
 20
33.79722245475161
 30
0.0
  0
SPLINE
  5
57
330
1F
100
AcDbEntity
  8
0
  6
Continuous
 62
     7
370
    15
100
AcDbSpline
210
0.0
220
0.0
230
1.0
 70
     8
 71
     3
 72
    23
 73
    19
 74
     0
 42
0.000000001
 43
0.0000000001
 40
0.0
 40
0.0
 40
0.0
 40
0.0
 40
0.0297332301454504
 40
0.0664394154748812
 40
0.111140812044817
 40
0.1635163069672406
 40
0.2236138207748008
 40
0.2914756062924016
 40
0.3671199484611319
 40
0.45058733797782
 40
0.5353924982541859
 40
0.6155548456678372
 40
0.6911333934482969
 40
0.761755295674221
 40
0.8279611949004037
 40
0.8894026362930993
 40
0.946661751393375
 40
1.0
 40
1.0
 40
1.0
 40
1.0
 10
0.7270554882536917
 20
47.99699123095201
 30
0.0
 10
0.6975693599387793
 20
47.8622184880681
 30
0.0
 10
0.6316820977652178
 20
47.56106647009521
 30
0.0
 10
0.5725019988642899
 20
47.04821441616702
 30
0.0
 10
0.5384779093079283
 20
46.42862805066124
 30
0.0
 10
0.5208515188640389
 20
45.69981753229732
 30
0.0
 10
0.5201126855936986
 20
44.86335474146854
 30
0.0
 10
0.5496349015828831
 20
43.91948214578735
 30
0.0
 10
0.5909212574246266
 20
42.86759118597653
 30
0.0
 10
0.6660387760997688
 20
41.73880081602553
 30
0.0
 10
0.7310512048823564
 20
40.58843033843757
 30
0.0
 10
0.7652486184745029
 20
39.47314525069961
 30
0.0
 10
0.7580803632421321
 20
38.42314221054861
 30
0.0
 10
0.7212898372218594
 20
37.43860996295621
 30
0.0
 10
0.6535588802680734
 20
36.52125186549676
 30
0.0
 10
0.551494142080513
 20
35.66970470718535
 30
0.0
 10
0.424997922682891
 20
34.88112684664172
 30
0.0
 10
0.2997202782583811
 20
34.38351413587562
 30
0.0
 10
0.239302109875314
 20
34.14352839311418
 30
0.0
  0
SPLINE
  5
58
330
1F
100
AcDbEntity
  8
0
  6
Continuous
 62
     7
370
    15
100
AcDbSpline
210
0.0
220
0.0
230
1.0
 70
     8
 71
     3
 72
    15
 73
    11
 74
     0
 42
0.000000001
 43
0.0000000001
 40
0.0
 40
0.0
 40
0.0
 40
0.0
 40
0.1433120185271645
 40
0.2750468762334409
 40
0.3966239245467309
 40
0.5131120088180176
 40
0.6276714378482015
 40
0.7446234878761798
 40
0.8670376089995743
 40
1.0
 40
1.0
 40
1.0
 40
1.0
 10
4.527731163929376
 20
50.72080879851958
 30
0.0
 10
4.284312691830031
 20
50.71257757349318
 30
0.0
 10
3.81713979833156
 20
50.69678006568924
 30
0.0
 10
3.152987086859981
 20
50.56964100920541
 30
0.0
 10
2.558078823369664
 20
50.36146100786092
 30
0.0
 10
2.035226958271331
 20
50.06154404695896
 30
0.0
 10
1.591853178238181
 20
49.66552811686453
 30
0.0
 10
1.219869988958591
 20
49.19014961002819
 30
0.0
 10
0.9232595862184563
 20
48.62739341441628
 30
0.0
 10
0.7942333212742745
 20
48.21283306634619
 30
0.0
 10
0.7270554882536917
 20
47.99699123095201
 30
0.0
  0
SPLINE
  5
59
330
1F
100
AcDbEntity
  8
0
  6
Continuous
 62
     7
370
    15
100
AcDbSpline
210
0.0
220
0.0
230
1.0
 70
     8
 71
     3
 72
    11
 73
     7
 74
     0
 42
0.000000001
 43
0.0000000001
 40
0.0
 40
0.0
 40
0.0
 40
0.0
 40
0.3567222096331973
 40
0.6387940193902852
 40
0.8567147607139823
 40
1.0
 40
1.0
 40
1.0
 40
1.0
 10
5.629927109875325
 20
50.63212636608716
 30
0.0
 10
5.498951791154307
 20
50.64405465423386
 30
0.0
 10
5.264410044026331
 20
50.66541502632146
 30
0.0
 10
4.950670636998193
 20
50.70361800142622
 30
0.0
 10
4.713576026496643
 20
50.71341208541887
 30
0.0
 10
4.580514690287936
 20
50.7187079892988
 30
0.0
 10
4.527731163929376
 20
50.72080879851958
 30
0.0
  0
SPLINE
  5
5A
330
1F
100
AcDbEntity
  8
0
  6
Continuous
 62
     7
370
    15
100
AcDbSpline
210
0.0
220
0.0
230
1.0
 70
     8
 71
     3
 72
    11
 73
     7
 74
     0
 42
0.000000001
 43
0.0000000001
 40
0.0
 40
0.0
 40
0.0
 40
0.0
 40
0.2021550067816199
 40
0.4334634756478031
 40
0.7016092685394688
 40
1.0
 40
1.0
 40
1.0
 40
1.0
 10
5.148508190956401
 20
49.35256555527636
 30
0.0
 10
5.172411810788029
 20
49.4417100695629
 30
0.0
 10
5.223666272884901
 20
49.63285493217482
 30
0.0
 10
5.338646922133941
 20
49.93192815624268
 30
0.0
 10
5.466401361595289
 20
50.2728193051335
 30
0.0
 10
5.573512460765833
 20
50.50816924019436
 30
0.0
 10
5.629927109875323
 20
50.63212636608715
 30
0.0
  0
SPLINE
  5
5B
330
1F
100
AcDbEntity
  8
0
  6
Continuous
 62
     7
370
    15
100
AcDbSpline
210
0.0
220
0.0
230
1.0
 70
     8
 71
     3
 72
    23
 73
    19
 74
     0
 42
0.000000001
 43
0.0000000001
 40
0.0
 40
0.0
 40
0.0
 40
0.0
 40
0.0632194795423449
 40
0.123550202034267
 40
0.1808963488227956
 40
0.2373854688678279
 40
0.2929165847275837
 40
0.3491532784599992
 40
0.4072599427311306
 40
0.4675367383094899
 40
0.5296469611529411
 40
0.5912775611982515
 40
0.6538312477952843
 40
0.7175885571897809
 40
0.7834347653950156
 40
0.8520561150627365
 40
0.9241046957431708
 40
1.0
 40
1.0
 40
1.0
 40
1.0
 10
8.22072102879423
 20
44.23432231203309
 30
0.0
 10
8.072623665313026
 20
44.23941051648647
 30
0.0
 10
7.783196113689652
 20
44.24935442448382
 30
0.0
 10
7.364350620431181
 20
44.32024384778094
 30
0.0
 10
6.971192477730462
 20
44.4331249320354
 30
0.0
 10
6.609825963731493
 20
44.59964056132686
 30
0.0
 10
6.274372791676891
 20
44.80920554316818
 30
0.0
 10
5.97631232736609
 20
45.07475682712724
 30
0.0
 10
5.701893059240318
 20
45.37911560206372
 30
0.0
 10
5.462363326291149
 20
45.72868539302451
 30
0.0
 10
5.260116631119874
 20
46.11061983465139
 30
0.0
 10
5.110782452436963
 20
46.52143050917525
 30
0.0
 10
4.992777487894557
 20
46.94611781303782
 30
0.0
 10
4.929703076926769
 20
47.39318922705238
 30
0.0
 10
4.922036747011501
 20
47.85787831822557
 30
0.0
 10
4.943883834457186
 20
48.34153013203127
 30
0.0
 10
5.022552627107103
 20
48.84363065479167
 30
0.0
 10
5.105801478715346
 20
49.18000520398901
 30
0.0
 10
5.1485081909564
 20
49.35256555527635
 30
0.0
  0
SPLINE
  5
5C
330
1F
100
AcDbEntity
  8
0
  6
Continuous
 62
     7
370
    15
100
AcDbSpline
210
0.0
220
0.0
230
1.0
 70
     8
 71
     3
 72
    15
 73
    11
 74
     0
 42
0.000000001
 43
0.0000000001
 40
0.0
 40
0.0
 40
0.0
 40
0.0
 40
0.1291054810664642
 40
0.2578899789258245
 40
0.3873823489623653
 40
0.5221657788590124
 40
0.6533555307096158
 40
0.7745155826982337
 40
0.8882732956997867
 40
1.0
 40
1.0
 40
1.0
 40
1.0
 10
14.04208927203748
 20
49.27021758230336
 30
0.0
 10
13.93700026403796
 20
48.93217229111711
 30
0.0
 10
13.72708352127487
 20
48.25692215998511
 30
0.0
 10
13.21320668447465
 20
47.32227581316194
 30
0.0
 10
12.56402952951017
 20
46.46099265071174
 30
0.0
 10
11.79073214616025
 20
45.69916951712595
 30
0.0
 10
10.94481654779133
 20
45.05544726743664
 30
0.0
 10
10.05697482466954
 20
44.58285380698938
 30
0.0
 10
9.144320150203962
 20
44.29305258858004
 30
0.0
 10
8.526733136103905
 20
44.25378116086956
 30
0.0
 10
8.22072102879423
 20
44.23432231203309
 30
0.0
  0
LINE
  5
5D
330
1F
100
AcDbEntity
  8
0
  6
Continuous
 62
     7
370
    15
100
AcDbLine
 10
-72.36670602982988
 20
54.3694574472
 30
0.0
 11
-19.95495464690001
 21
54.3694574472
 31
0.0
  0
LINE
  5
5E
330
1F
100
AcDbEntity
  8
0
  6
Continuous
 62
     7
370
    15
100
AcDbLine
 10
-92.6112046469
 20
27.9167547445
 30
0.0
 11
-81.1665960318883
 21
49.11939807332072
 31
0.0
  0
LINE
  5
5F
330
1F
100
AcDbEntity
  8
0
  6
Continuous
 62
     7
370
    15
100
AcDbLine
 10
-100.4152587009
 20
29.2026500147
 30
0.0
 11
-92.6112046469
 21
27.9167547445
 31
0.0
  0
SPLINE
  5
60
330
1F
100
AcDbEntity
  8
0
  6
Continuous
 62
     7
370
    15
100
AcDbSpline
210
0.0
220
0.0
230
1.0
 70
     8
 71
     3
 72
     9
 73
     5
 74
     0
 42
0.000000001
 43
0.0000000001
 40
0.0
 40
0.0
 40
0.0
 40
0.0
 40
0.4983898501980529
 40
1.0
 40
1.0
 40
1.0
 40
1.0
 10
-100.8460019441787
 20
29.23432231203309
 30
0.0
 10
-100.7740965522152
 20
29.23377582876504
 30
0.0
 10
-100.6298211582946
 20
29.2326793311782
 30
0.0
 10
-100.4869329010546
 20
29.21268125348383
 30
0.0
 10
-100.4152587009355
 20
29.2026500147358
 30
0.0
  0
SPLINE
  5
61
330
1F
100
AcDbEntity
  8
0
  6
Continuous
 62
     7
370
    15
100
AcDbSpline
210
0.0
220
0.0
230
1.0
 70
     8
 71
     3
 72
    15
 73
    11
 74
     0
 42
0.000000001
 43
0.0000000001
 40
0.0
 40
0.0
 40
0.0
 40
0.0
 40
0.1592588840412604
 40
0.3052615929643646
 40
0.4400222776205477
 40
0.5659274804173038
 40
0.6842245740148324
 40
0.7946605461301331
 40
0.8984270040915516
 40
1.0
 40
1.0
 40
1.0
 40
1.0
 10
-103.6711708630977
 20
27.56835947419526
 30
0.0
 10
-103.5506755049006
 20
27.70119656603707
 30
0.0
 10
-103.3197144178034
 20
27.95581383592753
 30
0.0
 10
-102.9554809428191
 20
28.29225167844807
 30
0.0
 10
-102.6002852173584
 20
28.58162904804756
 30
0.0
 10
-102.2444175979742
 20
28.81834249900223
 30
0.0
 10
-101.8894050796787
 20
29.00245637055662
 30
0.0
 10
-101.5401592648793
 20
29.13926105608804
 30
0.0
 10
-101.1916738776299
 20
29.21908072836893
 30
0.0
 10
-100.9604024317036
 20
29.22927809399541
 30
0.0
 10
-100.8460019441787
 20
29.23432231203309
 30
0.0
  0
SPLINE
  5
62
330
1F
100
AcDbEntity
  8
0
  6
Continuous
 62
     7
370
    15
100
AcDbSpline
210
0.0
220
0.0
230
1.0
 70
     8
 71
     3
 72
    11
 73
     7
 74
     0
 42
0.000000001
 43
0.0000000001
 40
0.0
 40
0.0
 40
0.0
 40
0.0
 40
0.3168657104531068
 40
0.5893116552686917
 40
0.8158021820718452
 40
1.0
 40
1.0
 40
1.0
 40
1.0
 10
-105.8755627549895
 20
24.36945744716823
 30
0.0
 10
-105.6607384862479
 20
24.71957847730112
 30
0.0
 10
-105.2612050522799
 20
25.37073888060557
 30
0.0
 10
-104.6699248868796
 20
26.24736992312354
 30
0.0
 10
-104.1628225815044
 20
26.97400757072886
 30
0.0
 10
-103.8234036420655
 20
27.38432708182874
 30
0.0
 10
-103.6711708630977
 20
27.56835947419526
 30
0.0
  0
LINE
  5
63
330
1F
100
AcDbEntity
  8
0
  6
Continuous
 62
     7
370
    15
100
AcDbLine
 10
-93.4726911334
 20
24.3694574472
 30
0.0
 11
-105.875562755
 21
24.3694574472
 31
0.0
  0
SPLINE
  5
64
330
1F
100
AcDbEntity
  8
0
  6
Continuous
 62
     7
370
    15
100
AcDbSpline
210
0.0
220
0.0
230
1.0
 70
     8
 71
     3
 72
    23
 73
    19
 74
     0
 42
0.000000001
 43
0.0000000001
 40
0.0
 40
0.0
 40
0.0
 40
0.0
 40
0.075655968138268
 40
0.148913353537737
 40
0.2191669228355511
 40
0.2865936228558619
 40
0.3521776133607294
 40
0.4157615690044851
 40
0.4771527358991233
 40
0.5370845675603738
 40
0.596199061683296
 40
0.6540392961448486
 40
0.7116768811811384
 40
0.7681896301660746
 40
0.8255245833172036
 40
0.8825525990832648
 40
0.9405841644395511
 40
1.0
 40
1.0
 40
1.0
 40
1.0
 10
-84.51576545769223
 20
30.49487974446552
 30
0.0
 10
-84.66112470792612
 20
30.24632728075183
 30
0.0
 10
-84.94723476576718
 20
29.75710241439326
 30
0.0
 10
-85.4101446801772
 20
29.0628784523487
 30
0.0
 10
-85.88446373303312
 20
28.41499263514276
 30
0.0
 10
-86.37474024684298
 20
27.8163756539405
 30
0.0
 10
-86.8791034630383
 20
27.26302195126501
 30
0.0
 10
-87.40777252617524
 20
26.76621607957459
 30
0.0
 10
-87.93843364906022
 20
26.30348756835462
 30
0.0
 10
-88.49356217086087
 20
25.898216363154
 30
0.0
 10
-89.0615900959014
 20
25.53619087331649
 30
0.0
 10
-89.64889433883438
 20
25.22414347168767
 30
0.0
 10
-90.2478454137192
 20
24.95926849080257
 30
0.0
 10
-90.86285026358607
 20
24.73854244537311
 30
0.0
 10
-91.49389592457008
 20
24.57905298602162
 30
0.0
 10
-92.13840931676177
 20
24.45450614224343
 30
0.0
 10
-92.7997314302498
 20
24.38551203887771
 30
0.0
 10
-93.2466155291005
 20
24.37485086300752
 30
0.0
 10
-93.47269113336796
 20
24.36945744716823
 30
0.0
  0
LINE
  5
65
330
1F
100
AcDbEntity
  8
0
  6
Continuous
 62
     7
370
    15
100
AcDbLine
 10
-81.9123026199
 20
35.3154033931
 30
0.0
 11
-84.5157654577
 21
30.4948797445
 31
0.0
  0
LINE
  5
66
330
1F
100
AcDbEntity
  8
0
  6
Continuous
 62
     7
370
    15
100
AcDbLine
 10
-79.05546140359999
 20
35.3534101499
 30
0.0
 11
-81.9123026199
 21
35.3154033931
 31
0.0
  0
SPLINE
  5
67
330
1F
100
AcDbEntity
  8
0
  6
Continuous
 62
     7
370
    15
100
AcDbSpline
210
0.0
220
0.0
230
1.0
 70
     8
 71
     3
 72
     9
 73
     5
 74
     0
 42
0.000000001
 43
0.0000000001
 40
0.0
 40
0.0
 40
0.0
 40
0.0
 40
0.1498532521930127
 40
0.2671820885055494
 40
0.2671820885055494
 40
0.2671820885055494
 40
0.2671820885055494
 10
-75.29279248471927
 20
38.55864663635742
 30
0.0
 10
-75.38440328712792
 20
38.30932597726412
 30
0.0
 10
-75.54774152075989
 20
37.86479765752948
 30
0.0
 10
-75.763699883769
 20
37.4419821992383
 30
0.0
 10
-75.87012084758227
 20
37.26325936661868
 30
0.0
  0
LINE
  5
68
330
1F
100
AcDbEntity
  8
0
  6
Continuous
 62
     7
370
    15
100
AcDbLine
 10
-80.08797829550001
 20
38.5586466364
 30
0.0
 11
-75.2927924847
 21
38.5586466364
 31
0.0
  0
LINE
  5
69
330
1F
100
AcDbEntity
  8
0
  6
Continuous
 62
     7
370
    15
100
AcDbLine
 10
-77.29773603586565
 20
43.7990113316574
 30
0.0
 11
-80.08797829550001
 21
38.5586466364
 31
0.0
  0
LINE
  5
6A
330
1F
100
AcDbEntity
  8
0
  6
Continuous
 62
     7
370
    15
100
AcDbLine
 10
-23.8316438361
 20
49.0991871769
 30
0.0
 11
-68.47097825543693
 21
49.0991871769
 31
0.0
  0
LINE
  5
6B
330
1F
100
AcDbEntity
  8
0
  6
Continuous
 62
     7
370
    15
100
AcDbLine
 10
-23.8316438361
 20
49.0991871769
 30
0.0
 11
-19.9549546469
 21
54.3694574472
 31
0.0
  0
LINE
  5
6C
330
1F
100
AcDbEntity
  8
0
  6
Continuous
 62
     7
370
    15
100
AcDbLine
 10
-66.8312215388
 20
27.6127006904
 30
0.0
 11
-64.8963622786779
 21
27.6127006904
 31
0.0
  0
LINE
  5
6D
330
1F
100
AcDbEntity
  8
0
  6
Continuous
 62
     7
370
    15
100
AcDbLine
 10
-60.9211708631
 20
38.5586466364
 30
0.0
 11
-66.8312215388
 21
27.6127006904
 31
0.0
  0
LINE
  5
6E
330
1F
100
AcDbEntity
  8
0
  6
Continuous
 62
     7
370
    15
100
AcDbLine
 10
-70.6889073496
 20
38.5586466364
 30
0.0
 11
-60.9211708631
 21
38.5586466364
 31
0.0
  0
SPLINE
  5
6F
330
1F
100
AcDbEntity
  8
0
  6
Continuous
 62
     7
370
    15
100
AcDbSpline
210
0.0
220
0.0
230
1.0
 70
     8
 71
     3
 72
    14
 73
    10
 74
     0
 42
0.000000001
 43
0.0000000001
 40
0.257767891200471
 40
0.257767891200471
 40
0.257767891200471
 40
0.257767891200471
 40
0.2586952943098002
 40
0.3838167400873163
 40
0.5071496619706424
 40
0.6296203970338294
 40
0.7523451631866345
 40
0.8752585631356516
 40
1.0
 40
1.0
 40
1.0
 40
1.0
 10
-75.87012084754318
 20
37.26325936659542
 30
0.0
 10
-75.86813433616936
 20
37.2643122589993
 30
0.0
 10
-75.5981091982566
 20
37.40736546905436
 30
0.0
 10
-75.05679193399544
 20
37.67659571744432
 30
0.0
 10
-74.21695081183951
 20
38.00028832820529
 30
0.0
 10
-73.35792988984778
 20
38.24747574496527
 30
0.0
 10
-72.48299396355019
 20
38.42387851766123
 30
0.0
 10
-71.59128690143515
 20
38.53592550146952
 30
0.0
 10
-70.99117708172521
 20
38.55103574652464
 30
0.0
 10
-70.68890734958414
 20
38.55864663635742
 30
0.0
  0
SPLINE
  5
70
330
1F
100
AcDbEntity
  8
0
  6
Continuous
 62
     7
370
    15
100
AcDbSpline
210
0.0
220
0.0
230
1.0
 70
     8
 71
     3
 72
    14
 73
    10
 74
     0
 42
0.000000001
 43
0.0000000001
 40
0.0
 40
0.0
 40
0.0
 40
0.0
 40
0.131375360586497
 40
0.2598347409746298
 40
0.3847922601921745
 40
0.5084540718568312
 40
0.6304416438636858
 40
0.7528239949532739
 40
0.8505292473889863
 40
0.8505292473889863
 40
0.8505292473889863
 40
0.8505292473889863
 10
-82.04659316039493
 20
29.38634933906012
 30
0.0
 10
-81.94223823117349
 20
29.74076802228768
 30
0.0
 10
-81.73584461305038
 20
30.44173878531268
 30
0.0
 10
-81.33561271650095
 20
31.44852517801022
 30
0.0
 10
-80.86325955688415
 20
32.39862181988748
 30
0.0
 10
-80.32669021140757
 20
33.29305874100397
 30
0.0
 10
-79.71513204689744
 20
34.12971054251793
 30
0.0
 10
-79.07398878930553
 20
34.84768354247578
 30
0.0
 10
-78.63232666892083
 20
35.28218476441799
 30
0.0
 10
-78.42892500177658
 20
35.46674382577077
 30
0.0
  0
SPLINE
  5
71
330
1F
100
AcDbEntity
  8
0
  6
Continuous
 62
     7
370
    15
100
AcDbSpline
210
0.0
220
0.0
230
1.0
 70
     8
 71
     3
 72
    23
 73
    19
 74
     0
 42
0.000000001
 43
0.0000000001
 40
0.0
 40
0.0
 40
0.0
 40
0.0
 40
0.0646527411461292
 40
0.124798883867773
 40
0.1812002128277615
 40
0.23591435259663
 40
0.2893957252442353
 40
0.3425226135118447
 40
0.3968630416501555
 40
0.4537093067823826
 40
0.512629435992689
 40
0.5722496804194261
 40
0.6336999231380922
 40
0.6985414986428865
 40
0.767406550673104
 40
0.8400420438746108
 40
0.917734901549984
 40
1.0
 40
1.0
 40
1.0
 40
1.0
 10
-79.09473505228685
 20
23.96405204176283
 30
0.0
 10
-79.25337379185505
 20
23.9690005236358
 30
0.0
 10
-79.55959340892514
 20
23.97855255505225
 30
0.0
 10
-79.99970543666933
 20
24.04918512391426
 30
0.0
 10
-80.40517302601408
 20
24.16242390511229
 30
0.0
 10
-80.77646746950415
 20
24.32616044158026
 30
0.0
 10
-81.1060834097299
 20
24.54726728968179
 30
0.0
 10
-81.41064616849833
 20
24.80027788171872
 30
0.0
 10
-81.67232946926052
 20
25.10966084486758
 30
0.0
 10
-81.89105264133968
 20
25.46611873656266
 30
0.0
 10
-82.0757943633058
 20
25.85592018274897
 30
0.0
 10
-82.20724273886178
 20
26.27864038963203
 30
0.0
 10
-82.29687820397994
 20
26.72658471298244
 30
0.0
 10
-82.33914358229373
 20
27.20416898636511
 30
0.0
 10
-82.3403362095607
 20
27.71111752579812
 30
0.0
 10
-82.28489619964019
 20
28.24655879834463
 30
0.0
 10
-82.1915570584805
 20
28.80991500235226
 30
0.0
 10
-82.0958265802633
 20
29.19057760485272
 30
0.0
 10
-82.04659316039493
 20
29.38634933906012
 30
0.0
  0
SPLINE
  5
72
330
1F
100
AcDbEntity
  8
0
  6
Continuous
 62
     7
370
    15
100
AcDbSpline
210
0.0
220
0.0
230
1.0
 70
     8
 71
     3
 72
    15
 73
    11
 74
     0
 42
0.000000001
 43
0.0000000001
 40
0.0
 40
0.0
 40
0.0
 40
0.0
 40
0.1447114629168444
 40
0.2819434948799734
 40
0.4121934756589062
 40
0.5361232677024727
 40
0.6559019906497693
 40
0.7719872983040136
 40
0.8861964897949444
 40
1.0
 40
1.0
 40
1.0
 40
1.0
 10
-73.94481951174629
 20
26.41548785257363
 30
0.0
 10
-74.1480706446699
 20
26.2191050274199
 30
0.0
 10
-74.54406784903587
 20
25.836489449205
 30
0.0
 10
-75.18418076019955
 20
25.34766570940388
 30
0.0
 10
-75.81436360643406
 20
24.91449987849566
 30
0.0
 10
-76.46098415185327
 20
24.5737660584478
 30
0.0
 10
-77.10655962269544
 20
24.2945281243824
 30
0.0
 10
-77.76460337731531
 20
24.10600415118315
 30
0.0
 10
-78.42731052538926
 20
23.98588439174928
 30
0.0
 10
-78.87252425211601
 20
23.97132085458673
 30
0.0
 10
-79.09473505228685
 20
23.96405204176283
 30
0.0
  0
SPLINE
  5
73
330
1F
100
AcDbEntity
  8
0
  6
Continuous
 62
     7
370
    15
100
AcDbSpline
210
0.0
220
0.0
230
1.0
 70
     8
 71
     3
 72
    15
 73
    11
 74
     0
 42
0.000000001
 43
0.0000000001
 40
0.0
 40
0.0
 40
0.0
 40
0.0
 40
0.1739734022112018
 40
0.3207732069485321
 40
0.4454163089475192
 40
0.5542240910896945
 40
0.6533676261828344
 40
0.7551043571248668
 40
0.8670495346083107
 40
1.0
 40
1.0
 40
1.0
 40
1.0
 10
-71.73409316039495
 20
24.36945744716823
 30
0.0
 10
-71.94782729995029
 20
24.37431477806488
 30
0.0
 10
-72.34191159391794
 20
24.3832707540309
 30
0.0
 10
-72.88241276202959
 20
24.47643069762985
 30
0.0
 10
-73.32788214393548
 20
24.62819663579783
 30
0.0
 10
-73.6689331527593
 20
24.86085327440447
 30
0.0
 10
-73.91719591929291
 20
25.15872698737146
 30
0.0
 10
-74.03389008856459
 20
25.53228618106713
 30
0.0
 10
-74.05167745913688
 20
25.96219740204577
 30
0.0
 10
-73.98241898286842
 20
26.25599123467349
 30
0.0
 10
-73.94481951174629
 20
26.41548785257363
 30
0.0
  0
LINE
  5
74
330
1F
100
AcDbEntity
  8
0
  6
Continuous
 62
     7
370
    15
100
AcDbLine
 10
-65.2729445117
 20
24.3694574472
 30
0.0
 11
-71.7340931604
 21
24.3694574472
 31
0.0
  0
SPLINE
  5
75
330
1F
100
AcDbEntity
  8
0
  6
Continuous
 62
     7
370
    15
100
AcDbSpline
210
0.0
220
0.0
230
1.0
 70
     8
 71
     3
 72
     9
 73
     5
 74
     0
 42
0.000000001
 43
0.0000000001
 40
0.7492247664794656
 40
0.7492247664794656
 40
0.7492247664794656
 40
0.7492247664794656
 40
0.8719491996395733
 40
1.0
 40
1.0
 40
1.0
 40
1.0
 10
-63.69836775031535
 20
24.57141289604108
 30
0.0
 10
-63.94895127018871
 20
24.50222349291297
 30
0.0
 10
-64.47118751708857
 20
24.39711109079689
 30
0.0
 10
-65.00193456079676
 20
24.37880493356787
 30
0.0
 10
-65.27294451174632
 20
24.36945744716823
 30
0.0
  0
LINE
  5
76
330
1F
100
AcDbEntity
  8
0
  6
Continuous
 62
     7
370
    15
100
AcDbLine
 10
-69.3776742415
 20
35.3154033931
 30
0.0
 11
-73.1466776199
 21
35.3154033931
 31
0.0
  0
LINE
  5
77
330
1F
100
AcDbEntity
  8
0
  6
Continuous
 62
     7
370
    15
100
AcDbLine
 10
-73.4443972144
 20
27.7900655553
 30
0.0
 11
-69.3776742415
 21
35.3154033931
 31
0.0
  0
SPLINE
  5
78
330
1F
100
AcDbEntity
  8
0
  6
Continuous
 62
     7
370
    15
100
AcDbSpline
210
0.0
220
0.0
230
1.0
 70
     8
 71
     3
 72
    15
 73
    11
 74
     0
 42
0.000000001
 43
0.0000000001
 40
0.0
 40
0.0
 40
0.0
 40
0.0
 40
0.1169401269027431
 40
0.2190809332975926
 40
0.3123090493848171
 40
0.4097380139923171
 40
0.5223227579582544
 40
0.6552874181376102
 40
0.8138622244750241
 40
1.0
 40
1.0
 40
1.0
 40
1.0
 10
-75.9021674847193
 20
29.6080554201412
 30
0.0
 10
-75.93320358344705
 20
29.46747736477039
 30
0.0
 10
-75.99134801731493
 20
29.20411206504388
 30
0.0
 10
-75.95701033624063
 20
28.81529171229793
 30
0.0
 10
-75.80314482146635
 20
28.48211469400872
 30
0.0
 10
-75.52934336938219
 20
28.22106836557832
 30
0.0
 10
-75.15699305920984
 20
28.01711121248658
 30
0.0
 10
-74.6758783995558
 20
27.88806731667529
 30
0.0
 10
-74.09606833100449
 20
27.79729799429161
 30
0.0
 10
-73.67289967342165
 20
27.79260154322697
 30
0.0
 10
-73.44439721444901
 20
27.79006555527634
 30
0.0
  0
SPLINE
  5
79
330
1F
100
AcDbEntity
  8
0
  6
Continuous
 62
     7
370
    15
100
AcDbSpline
210
0.0
220
0.0
230
1.0
 70
     8
 71
     3
 72
     9
 73
     5
 74
     0
 42
0.000000001
 43
0.0000000001
 40
0.0
 40
0.0
 40
0.0
 40
0.0
 40
0.5298705112818124
 40
1.0
 40
1.0
 40
1.0
 40
1.0
 10
-75.58544451174629
 20
30.44420406878985
 30
0.0
 10
-75.64966007449719
 20
30.29963346711133
 30
0.0
 10
-75.77085112284514
 20
30.02679208681113
 30
0.0
 10
-75.86017411301836
 20
29.74196230148723
 30
0.0
 10
-75.9021674847193
 20
29.6080554201412
 30
0.0
  0
LINE
  5
7A
330
1F
100
AcDbEntity
  8
0
  6
Continuous
 62
     7
370
    15
100
AcDbLine
 10
-73.1466776199
 20
35.3154033931
 30
0.0
 11
-75.5854445117
 21
30.4442040688
 31
0.0
  0
LINE
  5
7B
330
1F
100
AcDbEntity
  8
0
  6
Continuous
 62
     7
370
    15
100
AcDbLine
 10
-51.0660188361
 20
27.6127006904
 30
0.0
 11
-49.253823178227
 21
27.6127006904
 31
0.0
  0
SPLINE
  5
7C
330
1F
100
AcDbEntity
  8
0
  6
Continuous
 62
     7
370
    15
100
AcDbSpline
210
0.0
220
0.0
230
1.0
 70
     8
 71
     3
 72
    11
 73
     7
 74
     0
 42
0.000000001
 43
0.0000000001
 40
0.0
 40
0.0
 40
0.0
 40
0.0
 40
0.2482976485530188
 40
0.4938950506320793
 40
0.7424099008436768
 40
1.0
 40
1.0
 40
1.0
 40
1.0
 10
-49.05166072796253
 20
30.7799304201412
 30
0.0
 10
-49.14485430641086
 20
30.47796098148694
 30
0.0
 10
-49.33022797955897
 20
29.87730603343315
 30
0.0
 10
-49.79210549309879
 20
29.05024512196706
 30
0.0
 10
-50.35318348306703
 20
28.27315801402994
 30
0.0
 10
-50.82558342979537
 20
27.83546927822431
 30
0.0
 10
-51.06601883607063
 20
27.61270069041148
 30
0.0
  0
SPLINE
  5
7D
330
1F
100
AcDbEntity
  8
0
  6
Continuous
 62
     7
370
    15
100
AcDbSpline
210
0.0
220
0.0
230
1.0
 70
     8
 71
     3
 72
    11
 73
     7
 74
     0
 42
0.000000001
 43
0.0000000001
 40
0.0
 40
0.0
 40
0.0
 40
0.0
 40
0.2914430246579865
 40
0.5547698738173473
 40
0.7909688734397708
 40
1.0
 40
1.0
 40
1.0
 40
1.0
 10
-48.63992086309766
 20
35.18237974446554
 30
0.0
 10
-48.63962566115903
 20
34.75150955891773
 30
0.0
 10
-48.63906373608832
 20
33.93133622058336
 30
0.0
 10
-48.70828693815254
 20
32.76393301788418
 30
0.0
 10
-48.82954799684879
 20
31.72181177126157
 30
0.0
 10
-48.98069752448162
 20
31.08085381899046
 30
0.0
 10
-49.05166072796253
 20
30.7799304201412
 30
0.0
  0
SPLINE
  5
7E
330
1F
100
AcDbEntity
  8
0
  6
Continuous
 62
     7
370
    15
100
AcDbSpline
210
0.0
220
0.0
230
1.0
 70
     8
 71
     3
 72
     9
 73
     5
 74
     0
 42
0.000000001
 43
0.0000000001
 40
0.0
 40
0.0
 40
0.0
 40
0.0
 40
0.5007490796527839
 40
1.0
 40
1.0
 40
1.0
 40
1.0
 10
-48.75394113336793
 20
39.40746420392498
 30
0.0
 10
-48.73495203275035
 20
38.70222733213076
 30
0.0
 10
-48.69703064379695
 20
37.29386354186029
 30
0.0
 10
-48.65893843393119
 20
35.88550436145989
 30
0.0
 10
-48.63992086309766
 20
35.18237974446554
 30
0.0
  0
SPLINE
  5
7F
330
1F
100
AcDbEntity
  8
0
  6
Continuous
 62
     7
370
    15
100
AcDbSpline
210
0.0
220
0.0
230
1.0
 70
     8
 71
     3
 72
    11
 73
     7
 74
     0
 42
0.000000001
 43
0.0000000001
 40
0.0
 40
0.0
 40
0.0
 40
0.0
 40
0.243445020606425
 40
0.4880534372882208
 40
0.7392524511501704
 40
1.0
 40
1.0
 40
1.0
 40
1.0
 10
-47.18299518742198
 20
42.23896758230336
 30
0.0
 10
-47.26141171976347
 20
41.98545950199383
 30
0.0
 10
-47.41861952813904
 20
41.47723185508119
 30
0.0
 10
-47.76710540416152
 20
40.74835314525377
 30
0.0
 10
-48.21424837353393
 20
40.05374217754526
 30
0.0
 10
-48.57182046989565
 20
39.62555231275832
 30
0.0
 10
-48.75394113336794
 20
39.407464203925
 30
0.0
  0
SPLINE
  5
80
330
1F
100
AcDbEntity
  8
0
  6
Continuous
 62
     7
370
    15
100
AcDbSpline
210
0.0
220
0.0
230
1.0
 70
     8
 71
     3
 72
    15
 73
    11
 74
     0
 42
0.000000001
 43
0.0000000001
 40
0.0
 40
0.0
 40
0.0
 40
0.0
 40
0.1452334254215848
 40
0.2731137772709762
 40
0.3880934697433588
 40
0.4977998451889209
 40
0.6067884387482401
 40
0.7227458277033209
 40
0.8533300800841349
 40
1.0
 40
1.0
 40
1.0
 40
1.0
 10
-49.08966748471929
 20
45.4505385282493
 30
0.0
 10
-48.88634767158835
 20
45.39912015753026
 30
0.0
 10
-48.50400151403525
 20
45.30242708975031
 30
0.0
 10
-48.00182392846829
 20
45.04889729510746
 30
0.0
 10
-47.59103822949387
 20
44.74349411494054
 30
0.0
 10
-47.29399393420266
 20
44.3588967524915
 30
0.0
 10
-47.09537713463191
 20
43.91402435788078
 30
0.0
 10
-47.01994985545533
 20
43.40309495078443
 30
0.0
 10
-47.03926434143421
 20
42.83366232586778
 30
0.0
 10
-47.13326696471012
 20
42.4447209990477
 30
0.0
 10
-47.18299518742198
 20
42.23896758230336
 30
0.0
  0
LINE
  5
81
330
1F
100
AcDbEntity
  8
0
  6
Continuous
 62
     7
370
    15
100
AcDbLine
 10
-54.70833302529999
 20
39.8762142039
 30
0.0
 11
-49.0896674847
 21
45.45053852819999
 31
0.0
  0
SPLINE
  5
82
330
1F
100
AcDbEntity
  8
0
  6
Continuous
 62
     7
370
    15
100
AcDbSpline
210
0.0
220
0.0
230
1.0
 70
     8
 71
     3
 72
     9
 73
     5
 74
     0
 42
0.000000001
 43
0.0000000001
 40
0.0
 40
0.0
 40
0.0
 40
0.0
 40
0.4658082688554012
 40
1.0
 40
1.0
 40
1.0
 40
1.0
 10
-54.98071478201659
 20
38.05822433906012
 30
0.0
 10
-54.9658011733429
 20
38.34448377993036
 30
0.0
 10
-54.93378454832613
 20
38.95902727348759
 30
0.0
 10
-54.78683321330747
 20
39.55685798253015
 30
0.0
 10
-54.70833302525982
 20
39.876214203925
 30
0.0
  0
SPLINE
  5
83
330
1F
100
AcDbEntity
  8
0
  6
Continuous
 62
     7
370
    15
100
AcDbSpline
210
0.0
220
0.0
230
1.0
 70
     8
 71
     3
 72
     9
 73
     5
 74
     0
 42
0.000000001
 43
0.0000000001
 40
0.0
 40
0.0
 40
0.0
 40
0.0
 40
0.5591569859656303
 40
1.0
 40
1.0
 40
1.0
 40
1.0
 10
-54.88569789012468
 20
36.95602839311418
 30
0.0
 10
-54.91587336650219
 20
37.16044980787769
 30
0.0
 10
-54.96983938523199
 20
37.52603839908609
 30
0.0
 10
-54.97738732534666
 20
37.89539573697115
 30
0.0
 10
-54.98071478201659
 20
38.05822433906012
 30
0.0
  0
LINE
  5
84
330
1F
100
AcDbEntity
  8
0
  6
Continuous
 62
     7
370
    15
100
AcDbLine
 10
-60.86542761989999
 20
32.0721601499
 30
0.0
 11
-54.8856978901
 21
36.9560283931
 31
0.0
  0
LINE
  5
85
330
1F
100
AcDbEntity
  8
0
  6
Continuous
 62
     7
370
    15
100
AcDbLine
 10
-57.4131472144
 20
32.0721601499
 30
0.0
 11
-60.86542761989999
 21
32.0721601499
 31
0.0
  0
LINE
  5
86
330
1F
100
AcDbEntity
  8
0
  6
Continuous
 62
     7
370
    15
100
AcDbLine
 10
-54.98071478199999
 20
33.8648121769
 30
0.0
 11
-57.4131472144
 21
32.0721601499
 31
0.0
  0
SPLINE
  5
87
330
1F
100
AcDbEntity
  8
0
  6
Continuous
 62
     7
370
    15
100
AcDbSpline
210
0.0
220
0.0
230
1.0
 70
     8
 71
     3
 72
    15
 73
    11
 74
     0
 42
0.000000001
 43
0.0000000001
 40
0.0
 40
0.0
 40
0.0
 40
0.0
 40
0.0657639678739099
 40
0.1475094520422169
 40
0.2460655214181888
 40
0.3613025309864605
 40
0.4951945128422241
 40
0.6459257379367526
 40
0.8135916156769301
 40
1.0
 40
1.0
 40
1.0
 40
1.0
 10
-55.20875532255711
 20
30.51388312284391
 30
0.0
 10
-55.19033364811828
 20
30.58538404948764
 30
0.0
 10
-55.14901358806074
 20
30.74576157612884
 30
0.0
 10
-55.11860258213372
 20
31.02058457776713
 30
0.0
 10
-55.07723455827427
 20
31.34928414492462
 30
0.0
 10
-55.0476734362635
 20
31.73825324100488
 30
0.0
 10
-55.02218522885581
 20
32.18594711413986
 30
0.0
 10
-55.00626188163925
 20
32.69294189485894
 30
0.0
 10
-54.98279148934503
 20
33.25862718841675
 30
0.0
 10
-54.98143102269592
 20
33.65574355081129
 30
0.0
 10
-54.98071478201659
 20
33.86481217689797
 30
0.0
  0
SPLINE
  5
88
330
1F
100
AcDbEntity
  8
0
  6
Continuous
 62
     7
370
    15
100
AcDbSpline
210
0.0
220
0.0
230
1.0
 70
     8
 71
     3
 72
    11
 73
     7
 74
     0
 42
0.000000001
 43
0.0000000001
 40
0.0
 40
0.0
 40
0.0
 40
0.0
 40
0.2738493887464709
 40
0.5302255210899743
 40
0.770397230745609
 40
1.0
 40
1.0
 40
1.0
 40
1.0
 10
-56.89372153877332
 20
27.61270069041148
 30
0.0
 10
-56.69234041478232
 20
27.84738290883952
 30
0.0
 10
-56.30242750719989
 20
28.30177319295209
 30
0.0
 10
-55.81781352246977
 20
29.02597127135819
 30
0.0
 10
-55.44648714321121
 20
29.76024620471631
 30
0.0
 10
-55.28680173385422
 20
30.26646711972314
 30
0.0
 10
-55.20875532255711
 20
30.51388312284391
 30
0.0
  0
SPLINE
  5
89
330
1F
100
AcDbEntity
  8
0
  6
Continuous
 62
     7
370
    15
100
AcDbSpline
210
0.0
220
0.0
230
1.0
 70
     8
 71
     3
 72
    15
 73
    11
 74
     0
 42
0.000000001
 43
0.0000000001
 40
0.0
 40
0.0
 40
0.0
 40
0.0
 40
0.0891477893911597
 40
0.1865482400213249
 40
0.2917713669106043
 40
0.4075499905430772
 40
0.535784406196889
 40
0.6767133806765188
 40
0.8309886309971402
 40
1.0
 40
1.0
 40
1.0
 40
1.0
 10
-61.13147491715171
 20
30.45053852824931
 30
0.0
 10
-60.9763600939915
 20
30.43694797115507
 30
0.0
 10
-60.65177103284506
 20
30.40850874092678
 30
0.0
 10
-60.16415604621485
 20
30.25281474610965
 30
0.0
 10
-59.6597575579512
 20
30.02066309822846
 30
0.0
 10
-59.13721755927184
 20
29.7063308190615
 30
0.0
 10
-58.60051970590031
 20
29.30285701175473
 30
0.0
 10
-58.04348777261825
 20
28.81864702220131
 30
0.0
 10
-57.46422073294366
 20
28.25336477586433
 30
0.0
 10
-57.08958025058638
 20
27.83264778895938
 30
0.0
 10
-56.89372153877332
 20
27.61270069041148
 30
0.0
  0
SPLINE
  5
8A
330
1F
100
AcDbEntity
  8
0
  6
Continuous
 62
     7
370
    15
100
AcDbSpline
210
0.0
220
0.0
230
1.0
 70
     8
 71
     3
 72
    11
 73
     7
 74
     0
 42
0.000000001
 43
0.0000000001
 40
0.0
 40
0.0
 40
0.0
 40
0.0
 40
0.2644528912460025
 40
0.5143221052505784
 40
0.7569849546738192
 40
1.0
 40
1.0
 40
1.0
 40
1.0
 10
-63.17750532255711
 20
29.8424304201412
 30
0.0
 10
-63.01350599558532
 20
29.94114556031174
 30
0.0
 10
-62.69455134657242
 20
30.133132036517
 30
0.0
 10
-62.1782117079616
 20
30.31867044937976
 30
0.0
 10
-61.65926136985308
 20
30.44524405706937
 30
0.0
 10
-61.3074887656082
 20
30.4487728515383
 30
0.0
 10
-61.13147491715171
 20
30.45053852824931
 30
0.0
  0
SPLINE
  5
8B
330
1F
100
AcDbEntity
  8
0
  6
Continuous
 62
     7
370
    15
100
AcDbSpline
210
0.0
220
0.0
230
1.0
 70
     8
 71
     3
 72
    11
 73
     7
 74
     0
 42
0.000000001
 43
0.0000000001
 40
0.0
 40
0.0
 40
0.0
 40
0.0
 40
0.256650642106282
 40
0.5049964770359774
 40
0.7494141693721595
 40
1.0
 40
1.0
 40
1.0
 40
1.0
 10
-64.81813032255711
 20
27.83440677149255
 30
0.0
 10
-64.73063228958388
 20
28.04325708037664
 30
0.0
 10
-64.55846752102362
 20
28.45419963383677
 30
0.0
 10
-64.17337708172971
 20
28.99446968266849
 30
0.0
 10
-63.72006280702849
 20
29.47083920201533
 30
0.0
 10
-63.35985398037343
 20
29.71754197638928
 30
0.0
 10
-63.17750532255711
 20
29.8424304201412
 30
0.0
  0
SPLINE
  5
8C
330
1F
100
AcDbEntity
  8
0
  6
Continuous
 62
     7
370
    15
100
AcDbSpline
210
0.0
220
0.0
230
1.0
 70
     8
 71
     3
 72
     8
 73
     4
 74
     0
 42
0.000000001
 43
0.0000000001
 40
0.6036194496220083
 40
0.6036194496220083
 40
0.6036194496220083
 40
0.6036194496220083
 40
1.0
 40
1.0
 40
1.0
 40
1.0
 10
-64.8963622786779
 20
27.6127006904
 30
0.0
 10
-64.87121110091581
 20
27.68690364259955
 30
0.0
 10
-64.84467071173646
 20
27.76065520704605
 30
0.0
 10
-64.81813032255711
 20
27.83440677149255
 30
0.0
  0
SPLINE
  5
8D
330
1F
100
AcDbEntity
  8
0
  6
Continuous
 62
     7
370
    15
100
AcDbSpline
210
0.0
220
0.0
230
1.0
 70
     8
 71
     3
 72
    10
 73
     6
 74
     0
 42
0.000000001
 43
0.0000000001
 40
0.0
 40
0.0
 40
0.0
 40
0.0
 40
0.170079384693261
 40
0.3150844600269699
 40
0.3283016989642121
 40
0.3283016989642121
 40
0.3283016989642121
 40
0.3283016989642121
 10
-62.04997153877332
 20
24.36945744716823
 30
0.0
 10
-62.33800262062342
 20
24.37544943250272
 30
0.0
 10
-62.87160119907194
 20
24.38655002218917
 30
0.0
 10
-63.41826154504483
 20
24.49239827030363
 30
0.0
 10
-63.67681810571806
 20
24.56516170316774
 30
0.0
 10
-63.69836775031271
 20
24.57141289605017
 30
0.0
  0
LINE
  5
8E
330
1F
100
AcDbEntity
  8
0
  6
Continuous
 62
     7
370
    15
100
AcDbLine
 10
-49.1086708631
 20
24.3694574472
 30
0.0
 11
-62.0499715388
 21
24.3694574472
 31
0.0
  0
SPLINE
  5
8F
330
1F
100
AcDbEntity
  8
0
  6
Continuous
 62
     7
370
    15
100
AcDbSpline
210
0.0
220
0.0
230
1.0
 70
     8
 71
     3
 72
     8
 73
     4
 74
     0
 42
0.000000001
 43
0.0000000001
 40
0.895647598801931
 40
0.895647598801931
 40
0.895647598801931
 40
0.895647598801931
 40
1.0
 40
1.0
 40
1.0
 40
1.0
 10
-48.46320052576284
 20
24.41448241679232
 30
0.0
 10
-48.67694248630065
 20
24.38829417079523
 30
0.0
 10
-48.89280667469916
 20
24.37887580898173
 30
0.0
 10
-49.10867086309766
 20
24.36945744716823
 30
0.0
  0
LINE
  5
90
330
1F
100
AcDbEntity
  8
0
  6
Continuous
 62
     7
370
    15
100
AcDbLine
 10
-42.55377221439999
 20
27.6127006904
 30
0.0
 11
-34.3189749172
 21
27.6127006904
 31
0.0
  0
LINE
  5
91
330
1F
100
AcDbEntity
  8
0
  6
Continuous
 62
     7
370
    15
100
AcDbLine
 10
-38.411035728
 20
35.3154033931
 30
0.0
 11
-42.55377221439999
 21
27.6127006904
 31
0.0
  0
LINE
  5
92
330
1F
100
AcDbEntity
  8
0
  6
Continuous
 62
     7
370
    15
100
AcDbLine
 10
-37.2961708631
 20
35.3154033931
 30
0.0
 11
-38.411035728
 21
35.3154033931
 31
0.0
  0
SPLINE
  5
93
330
1F
100
AcDbEntity
  8
0
  6
Continuous
 62
     7
370
    15
100
AcDbSpline
210
0.0
220
0.0
230
1.0
 70
     8
 71
     3
 72
    15
 73
    11
 74
     0
 42
0.000000001
 43
0.0000000001
 40
0.0
 40
0.0
 40
0.0
 40
0.0
 40
0.1429774994403678
 40
0.2766470948933589
 40
0.4033443028626774
 40
0.5235637210010303
 40
0.6419903294121462
 40
0.7584733473026033
 40
0.8773340294631323
 40
1.0
 40
1.0
 40
1.0
 40
1.0
 10
-32.17792761985442
 20
38.55864663635743
 30
0.0
 10
-32.33944742318455
 20
38.30163254457485
 30
0.0
 10
-32.65197201295514
 20
37.80433610201143
 30
0.0
 10
-33.1942110154764
 20
37.13882647284982
 30
0.0
 10
-33.7790310316974
 20
36.57966728754364
 30
0.0
 10
-34.39979669392645
 20
36.1111562060963
 30
0.0
 10
-35.06858383629591
 20
35.75752487336272
 30
0.0
 10
-35.77549653955929
 20
35.49943203441214
 30
0.0
 10
-36.52289255949723
 20
35.34343556318728
 30
0.0
 10
-37.03571821371702
 20
35.32484508173965
 30
0.0
 10
-37.29617086309766
 20
35.31540339311418
 30
0.0
  0
LINE
  5
94
330
1F
100
AcDbEntity
  8
0
  6
Continuous
 62
     7
370
    15
100
AcDbLine
 10
-36.5487046469
 20
38.5586466364
 30
0.0
 11
-32.1779276199
 21
38.5586466364
 31
0.0
  0
LINE
  5
95
330
1F
100
AcDbEntity
  8
0
  6
Continuous
 62
     7
370
    15
100
AcDbLine
 10
-31.9245492415
 20
47.0721601499
 30
0.0
 11
-36.5487046469
 21
38.5586466364
 31
0.0
  0
LINE
  5
96
330
1F
100
AcDbEntity
  8
0
  6
Continuous
 62
     7
370
    15
100
AcDbLine
 10
-35.1551235658
 20
47.0721601499
 30
0.0
 11
-31.9245492415
 21
47.0721601499
 31
0.0
  0
SPLINE
  5
97
330
1F
100
AcDbEntity
  8
0
  6
Continuous
 62
     7
370
    15
100
AcDbSpline
210
0.0
220
0.0
230
1.0
 70
     8
 71
     3
 72
    15
 73
    11
 74
     0
 42
0.000000001
 43
0.0000000001
 40
0.0
 40
0.0
 40
0.0
 40
0.0
 40
0.0899157319538276
 40
0.1893448638398489
 40
0.299075739496133
 40
0.4182360942140673
 40
0.5486012698028372
 40
0.6886876784755785
 40
0.8386079265650195
 40
1.0
 40
1.0
 40
1.0
 40
1.0
 10
-40.5710864036382
 20
40.99741352824931
 30
0.0
 10
-40.37929516050986
 20
41.14945909777079
 30
0.0
 10
-39.97542048778339
 20
41.46963719155847
 30
0.0
 10
-39.37441785196174
 20
42.01934651861068
 30
0.0
 10
-38.74307014369357
 20
42.65185008588828
 30
0.0
 10
-38.08339416838143
 20
43.37368734974591
 30
0.0
 10
-37.38860725399247
 20
44.17471812016463
 30
0.0
 10
-36.66738563974875
 20
45.06292069195092
 30
0.0
 10
-35.91831716621562
 20
46.03662770312411
 30
0.0
 10
-35.41569528655601
 20
46.71860572881668
 30
0.0
 10
-35.15512356580036
 20
47.07216014987093
 30
0.0
  0
SPLINE
  5
98
330
1F
100
AcDbEntity
  8
0
  6
Continuous
 62
     7
370
    15
100
AcDbSpline
210
0.0
220
0.0
230
1.0
 70
     8
 71
     3
 72
    15
 73
    11
 74
     0
 42
0.000000001
 43
0.0000000001
 40
0.0
 40
0.0
 40
0.0
 40
0.0
 40
0.1472830848217531
 40
0.2874485846635589
 40
0.4203542308076763
 40
0.5485376969390858
 40
0.6689110859726508
 40
0.7850606805713805
 40
0.8954735156912071
 40
1.0
 40
1.0
 40
1.0
 40
1.0
 10
-46.01872153877333
 20
38.55864663635742
 30
0.0
 10
-45.73504847003981
 20
38.63858491104433
 30
0.0
 10
-45.18141108382333
 20
38.79459837278714
 30
0.0
 10
-44.38405568768136
 20
39.0630141347185
 30
0.0
 10
-43.63116916253068
 20
39.34203314951535
 30
0.0
 10
-42.92662305429145
 20
39.6362552542418
 30
0.0
 10
-42.26758001771589
 20
39.95007350592345
 30
0.0
 10
-41.65446575115729
 20
40.27609115241618
 30
0.0
 10
-41.08946764382886
 20
40.62320381506934
 30
0.0
 10
-40.74069632099042
 20
40.87497530401591
 30
0.0
 10
-40.5710864036382
 20
40.9974135282493
 30
0.0
  0
LINE
  5
99
330
1F
100
AcDbEntity
  8
0
  6
Continuous
 62
     7
370
    15
100
AcDbLine
 10
-48.0520830253
 20
35.3154033931
 30
0.0
 11
-46.0187215388
 21
38.5586466364
 31
0.0
  0
LINE
  5
9A
330
1F
100
AcDbEntity
  8
0
  6
Continuous
 62
     7
370
    15
100
AcDbLine
 10
-45.08755599819999
 20
35.3154033931
 30
0.0
 11
-48.0520830253
 21
35.3154033931
 31
0.0
  0
LINE
  5
9B
330
1F
100
AcDbEntity
  8
0
  6
Continuous
 62
     7
370
    15
100
AcDbLine
 10
-49.16061343069999
 20
27.7900655553
 30
0.0
 11
-45.08755599819999
 21
35.3154033931
 31
0.0
  0
SPLINE
  5
9C
330
1F
100
AcDbEntity
  8
0
  6
Continuous
 62
     7
370
    15
100
AcDbSpline
210
0.0
220
0.0
230
1.0
 70
     8
 71
     3
 72
     8
 73
     4
 74
     0
 42
0.000000001
 43
0.0000000001
 40
0.846460906125355
 40
0.846460906125355
 40
0.846460906125355
 40
0.846460906125355
 40
1.0
 40
1.0
 40
1.0
 40
1.0
 10
-49.25382317822701
 20
27.61270069039998
 30
0.0
 10
-49.22307334956537
 20
27.6719564357697
 30
0.0
 10
-49.1918433901153
 20
27.73101099552302
 30
0.0
 10
-49.16061343066523
 20
27.79006555527634
 30
0.0
  0
SPLINE
  5
9D
330
1F
100
AcDbEntity
  8
0
  6
Continuous
 62
     7
370
    15
100
AcDbSpline
210
0.0
220
0.0
230
1.0
 70
     8
 71
     3
 72
     9
 73
     5
 74
     0
 42
0.000000001
 43
0.0000000001
 40
0.0
 40
0.0
 40
0.0
 40
0.0
 40
0.1596050788876741
 40
0.1845332482829339
 40
0.1845332482829339
 40
0.1845332482829339
 40
0.1845332482829339
 10
-47.80503910634089
 20
24.36945744716823
 30
0.0
 10
-47.99591164017924
 20
24.3727350174704
 30
0.0
 10
-48.21659589986983
 20
24.37652450022716
 30
0.0
 10
-48.4339165184257
 20
24.40950842962902
 30
0.0
 10
-48.46320052576241
 20
24.41448241678879
 30
0.0
  0
LINE
  5
9E
330
1F
100
AcDbEntity
  8
0
  6
Continuous
 62
     7
370
    15
100
AcDbLine
 10
-39.3422012685
 20
24.3694574472
 30
0.0
 11
-47.8050391063
 21
24.3694574472
 31
0.0
  0
SPLINE
  5
9F
330
1F
100
AcDbEntity
  8
0
  6
Continuous
 62
     7
370
    15
100
AcDbSpline
210
0.0
220
0.0
230
1.0
 70
     8
 71
     3
 72
    15
 73
    11
 74
     0
 42
0.000000001
 43
0.0000000001
 40
0.0
 40
0.0
 40
0.0
 40
0.0
 40
0.1385393051206192
 40
0.2686482850200833
 40
0.3924977288986932
 40
0.5117991664068742
 40
0.6291365207175003
 40
0.7481647693223579
 40
0.8706438266887006
 40
1.0
 40
1.0
 40
1.0
 40
1.0
 10
-34.31897491715171
 20
27.61270069041148
 30
0.0
 10
-34.45829642086748
 20
27.35539958384681
 30
0.0
 10
-34.72846150511615
 20
26.85645453029552
 30
0.0
 10
-35.22817991601125
 20
26.19214341153623
 30
0.0
 10
-35.78174988774862
 20
25.62889176687938
 30
0.0
 10
-36.38920170659591
 20
25.1667474527669
 30
0.0
 10
-37.05062459649102
 20
24.80562764797194
 30
0.0
 10
-37.76712592121346
 20
24.55336660308063
 30
0.0
 10
-38.53724382033354
 20
24.39613067170725
 30
0.0
 10
-39.0690413438982
 20
24.37850892687143
 30
0.0
 10
-39.34220126850306
 20
24.36945744716823
 30
0.0
  0
LINE
  5
A0
330
1F
100
AcDbEntity
  8
0
  6
Continuous
 62
     7
370
    15
100
AcDbLine
 10
6.192427109899999
 20
27.6127006904
 30
0.0
 11
14.1219034612
 21
27.6127006904
 31
0.0
  0
SPLINE
  5
A1
330
1F
100
AcDbEntity
  8
0
  6
Continuous
 62
     7
370
    15
100
AcDbSpline
210
0.0
220
0.0
230
1.0
 70
     8
 71
     3
 72
    15
 73
    11
 74
     0
 42
0.000000001
 43
0.0000000001
 40
0.0
 40
0.0
 40
0.0
 40
0.0
 40
0.1349681360323394
 40
0.2511165131158222
 40
0.3533771772146571
 40
0.4524584151397033
 40
0.5594415777081388
 40
0.6822250768490454
 40
0.8277615282887945
 40
1.0
 40
1.0
 40
1.0
 40
1.0
 10
4.399775082848293
 20
29.34834258230336
 30
0.0
 10
4.367971906612207
 20
29.21403758866268
 30
0.0
 10
4.308800142392982
 20
28.96415489272763
 30
0.0
 10
4.320017416902803
 20
28.60038218926339
 30
0.0
 10
4.412195007106875
 20
28.28445697019312
 30
0.0
 10
4.610522260311955
 20
28.0322351508684
 30
0.0
 10
4.889056522022174
 20
27.83970032421172
 30
0.0
 10
5.24853004016579
 20
27.70128705468016
 30
0.0
 10
5.69287327985203
 20
27.62277029829532
 30
0.0
 10
6.016835199280926
 20
27.61624013217129
 30
0.0
 10
6.192427109875318
 20
27.61270069041148
 30
0.0
  0
SPLINE
  5
A2
330
1F
100
AcDbEntity
  8
0
  6
Continuous
 62
     7
370
    15
100
AcDbSpline
210
0.0
220
0.0
230
1.0
 70
     8
 71
     3
 72
     9
 73
     5
 74
     0
 42
0.000000001
 43
0.0000000001
 40
0.0
 40
0.0
 40
0.0
 40
0.0
 40
0.5365390663627138
 40
1.0
 40
1.0
 40
1.0
 40
1.0
 10
4.74183589365909
 20
30.15915339311417
 30
0.0
 10
4.667235125994178
 20
30.01973344857344
 30
0.0
 10
4.528194425434118
 20
29.75988294880293
 30
0.0
 10
4.440443984247653
 20
29.47867259529065
 30
0.0
 10
4.399775082848293
 20
29.34834258230336
 30
0.0
  0
LINE
  5
A3
330
1F
100
AcDbEntity
  8
0
  6
Continuous
 62
     7
370
    15
100
AcDbLine
 10
7.6303494072
 20
35.3154033931
 30
0.0
 11
4.7418358937
 21
30.1591533931
 31
0.0
  0
LINE
  5
A4
330
1F
100
AcDbEntity
  8
0
  6
Continuous
 62
     7
370
    15
100
AcDbLine
 10
11.2789980558
 20
35.3154033931
 30
0.0
 11
7.6303494072
 21
35.3154033931
 31
0.0
  0
LINE
  5
A5
330
1F
100
AcDbEntity
  8
0
  6
Continuous
 62
     7
370
    15
100
AcDbLine
 10
8.453829136900001
 20
30.8559439337
 30
0.0
 11
11.2789980558
 21
35.3154033931
 31
0.0
  0
LINE
  5
A6
330
1F
100
AcDbEntity
  8
0
  6
Continuous
 62
     7
370
    15
100
AcDbLine
 10
14.1295048126
 20
30.8559439337
 30
0.0
 11
8.453829136900001
 21
30.8559439337
 31
0.0
  0
SPLINE
  5
A7
330
1F
100
AcDbEntity
  8
0
  6
Continuous
 62
     7
370
    15
100
AcDbSpline
210
0.0
220
0.0
230
1.0
 70
     8
 71
     3
 72
    15
 73
    11
 74
     0
 42
0.000000001
 43
0.0000000001
 40
0.0
 40
0.0
 40
0.0
 40
0.0
 40
0.1217685628241481
 40
0.2418394816181276
 40
0.3620685966846606
 40
0.4836731508515387
 40
0.606405678015662
 40
0.7331982704857442
 40
0.8640629472615771
 40
1.0
 40
1.0
 40
1.0
 40
1.0
 10
16.73296765041585
 20
34.51092704176283
 30
0.0
 10
16.68632191041032
 20
34.33014477397316
 30
0.0
 10
16.59368074489931
 20
33.97110062568062
 30
0.0
 10
16.38358867353847
 20
33.45669552324038
 30
0.0
 10
16.14076149992801
 20
32.95752233475119
 30
0.0
 10
15.83216541542561
 20
32.49066008737751
 30
0.0
 10
15.4813413895685
 20
32.04276901081359
 30
0.0
 10
15.08121789731916
 20
31.61828320367821
 30
0.0
 10
14.63044399447911
 20
31.21641063647265
 30
0.0
 10
14.29858760020513
 20
30.97761282513153
 30
0.0
 10
14.12950481257802
 20
30.85594393365472
 30
0.0
  0
SPLINE
  5
A8
330
1F
100
AcDbEntity
  8
0
  6
Continuous
 62
     7
370
    15
100
AcDbSpline
210
0.0
220
0.0
230
1.0
 70
     8
 71
     3
 72
    15
 73
    11
 74
     0
 42
0.000000001
 43
0.0000000001
 40
0.0
 40
0.0
 40
0.0
 40
0.0
 40
0.1350844555030224
 40
0.259453615858583
 40
0.3784665437586372
 40
0.4948209321934788
 40
0.6111399348334633
 40
0.7315627053365908
 40
0.8608228185539367
 40
1.0
 40
1.0
 40
1.0
 40
1.0
 10
15.35205548825369
 20
37.76050474446552
 30
0.0
 10
15.49871412610572
 20
37.66978081535965
 30
0.0
 10
15.78039800857697
 20
37.4955294452537
 30
0.0
 10
16.14160943479711
 20
37.17204447902845
 30
0.0
 10
16.43290859323133
 20
36.81512336032986
 30
0.0
 10
16.64474241415458
 20
36.41660701761753
 30
0.0
 10
16.77764157973178
 20
35.9843181998363
 30
0.0
 10
16.84202636974164
 20
35.52030688927232
 30
0.0
 10
16.82682755948302
 20
35.02239056850956
 30
0.0
 10
16.76501547589897
 20
34.68556277291864
 30
0.0
 10
16.73296765041585
 20
34.51092704176283
 30
0.0
  0
SPLINE
  5
A9
330
1F
100
AcDbEntity
  8
0
  6
Continuous
 62
     7
370
    15
100
AcDbSpline
210
0.0
220
0.0
230
1.0
 70
     8
 71
     3
 72
    11
 73
     7
 74
     0
 42
0.000000001
 43
0.0000000001
 40
0.0
 40
0.0
 40
0.0
 40
0.0
 40
0.279146761242712
 40
0.5369167514006993
 40
0.7759418650350608
 40
1.0
 40
1.0
 40
1.0
 40
1.0
 10
11.79842373149694
 20
38.55864663635742
 30
0.0
 10
12.14104361964804
 20
38.54906401763285
 30
0.0
 10
12.80004591826834
 20
38.53063260724282
 30
0.0
 10
13.7434561418654
 20
38.38675842435371
 30
0.0
 10
14.59757248130327
 20
38.13989274319885
 30
0.0
 10
15.10603907963165
 20
37.88421286255811
 30
0.0
 10
15.35205548825369
 20
37.76050474446552
 30
0.0
  0
LINE
  5
AA
330
1F
100
AcDbEntity
  8
0
  6
Continuous
 62
     7
370
    15
100
AcDbLine
 10
9.3469879207
 20
38.5586466364
 30
0.0
 11
11.7984237315
 21
38.5586466364
 31
0.0
  0
SPLINE
  5
AB
330
1F
100
AcDbEntity
  8
0
  6
Continuous
 62
     7
370
    15
100
AcDbSpline
210
0.0
220
0.0
230
1.0
 70
     8
 71
     3
 72
    15
 73
    11
 74
     0
 42
0.000000001
 43
0.0000000001
 40
0.0
 40
0.0
 40
0.0
 40
0.0
 40
0.13055657803187
 40
0.2577161749315318
 40
0.3833530199317859
 40
0.5073420494652833
 40
0.6297503130358797
 40
0.7521102431216244
 40
0.8758935913222622
 40
1.0
 40
1.0
 40
1.0
 40
1.0
 10
3.088541974740178
 20
36.63930542014121
 30
0.0
 10
3.333783187472853
 20
36.79227204126704
 30
0.0
 10
3.817884626357128
 20
37.09422521040664
 30
0.0
 10
4.569332424789407
 20
37.49032681368202
 30
0.0
 10
5.336315176170539
 20
37.82007761665474
 30
0.0
 10
6.11680773831366
 20
38.08483849214142
 30
0.0
 10
6.905934399175285
 20
38.29563644061847
 30
0.0
 10
7.707764827035772
 20
38.4497290925181
 30
0.0
 10
8.523606781581126
 20
38.53853604406758
 30
0.0
 10
9.072289185567332
 20
38.5519372839055
 30
0.0
 10
9.346987920686123
 20
38.55864663635742
 30
0.0
  0
SPLINE
  5
AC
330
1F
100
AcDbEntity
  8
0
  6
Continuous
 62
     7
370
    15
100
AcDbSpline
210
0.0
220
0.0
230
1.0
 70
     8
 71
     3
 72
    12
 73
     8
 74
     0
 42
0.000000001
 43
0.0000000001
 40
0.4702800657459698
 40
0.4702800657459698
 40
0.4702800657459698
 40
0.4702800657459698
 40
0.4999339023323616
 40
0.6220801928133288
 40
0.7452551756917356
 40
0.8710480258434241
 40
1.0
 40
1.0
 40
1.0
 40
1.0
 10
0.1355156036135479
 20
33.79722245475149
 30
0.0
 10
0.1795282823734856
 20
33.86037937262385
 30
0.0
 10
0.4085873484052649
 20
34.18107894198457
 30
0.0
 10
0.856113522022062
 20
34.73786841929475
 30
0.0
 10
1.525445419720244
 20
35.43143743381199
 30
0.0
 10
2.266220824484959
 20
36.07701139036124
 30
0.0
 10
2.812178095394875
 20
36.45033088220738
 30
0.0
 10
3.088541974740178
 20
36.63930542014121
 30
0.0
  0
SPLINE
  5
AD
330
1F
100
AcDbEntity
  8
0
  6
Continuous
 62
     7
370
    15
100
AcDbSpline
210
0.0
220
0.0
230
1.0
 70
     8
 71
     3
 72
    23
 73
    19
 74
     0
 42
0.000000001
 43
0.0000000001
 40
0.0
 40
0.0
 40
0.0
 40
0.0
 40
0.0898512714206321
 40
0.1735793303898791
 40
0.2503656485610269
 40
0.3204998663555242
 40
0.3856928596608825
 40
0.4460262984698153
 40
0.5015226926648384
 40
0.5535886560000562
 40
0.6037080201926255
 40
0.6532150945689944
 40
0.7027355600936672
 40
0.7544052385459267
 40
0.8088979221857353
 40
0.8676388160746245
 40
0.9309903659347011
 40
0.991592036273859
 40
0.991592036273859
 40
0.991592036273859
 40
0.991592036273859
 10
5.210585893659094
 20
24.36945744716823
 30
0.0
 10
4.881088909476368
 20
24.37466026044319
 30
0.0
 10
4.244549604293101
 20
24.38471132405235
 30
0.0
 10
3.328121432522126
 20
24.45158201780757
 30
0.0
 10
2.490209592009859
 20
24.57148024846047
 30
0.0
 10
1.728731489223174
 20
24.73402114315029
 30
0.0
 10
1.042314546148771
 20
24.94702999542785
 30
0.0
 10
0.431717592245178
 20
25.21134145275045
 30
0.0
 10
-0.1007701041330415
 20
25.52348054028408
 30
0.0
 10
-0.5588770322536424
 20
25.87981899940272
 30
0.0
 10
-0.9380565229300556
 20
26.29034728330118
 30
0.0
 10
-1.239405993864767
 20
26.749964700029
 30
0.0
 10
-1.457707851885554
 20
27.2607875964435
 30
0.0
 10
-1.593308361414399
 20
27.81721701312046
 30
0.0
 10
-1.665498491801962
 20
28.41933367418999
 30
0.0
 10
-1.648497057622815
 20
29.06872456934124
 30
0.0
 10
-1.553487891040017
 20
29.73317349019061
 30
0.0
 10
-1.450323182191344
 20
30.17596240284252
 30
0.0
 10
-1.398758015970278
 20
30.39221162647026
 30
0.0
  0
LINE
  5
AE
330
1F
100
AcDbEntity
  8
0
  6
Continuous
 62
     7
370
    15
100
AcDbLine
 10
14.6489304883
 20
24.3694574472
 30
0.0
 11
5.2105858937
 21
24.3694574472
 31
0.0
  0
SPLINE
  5
AF
330
1F
100
AcDbEntity
  8
0
  6
Continuous
 62
     7
370
    15
100
AcDbSpline
210
0.0
220
0.0
230
1.0
 70
     8
 71
     3
 72
    11
 73
     7
 74
     0
 42
0.000000001
 43
0.0000000001
 40
0.0
 40
0.0
 40
0.0
 40
0.0
 40
0.2603150130971682
 40
0.5089646945542058
 40
0.7545434143127085
 40
1.0
 40
1.0
 40
1.0
 40
1.0
 10
17.45509602879423
 20
25.16126487960066
 30
0.0
 10
17.22995864135284
 20
25.03887846065341
 30
0.0
 10
16.78977280547457
 20
24.79959004775726
 30
0.0
 10
16.08783568213477
 20
24.55118391472042
 30
0.0
 10
15.37334668849462
 20
24.40022230389058
 30
0.0
 10
14.89036251115639
 20
24.37971069880771
 30
0.0
 10
14.64893048825369
 20
24.36945744716823
 30
0.0
  0
SPLINE
  5
B0
330
1F
100
AcDbEntity
  8
0
  6
Continuous
 62
     7
370
    15
100
AcDbSpline
210
0.0
220
0.0
230
1.0
 70
     8
 71
     3
 72
    11
 73
     7
 74
     0
 42
0.000000001
 43
0.0000000001
 40
0.0
 40
0.0
 40
0.0
 40
0.0
 40
0.2506308277938356
 40
0.4986488506007893
 40
0.7466598691285858
 40
1.0
 40
1.0
 40
1.0
 40
1.0
 10
19.7418358936591
 20
27.61270069041148
 30
0.0
 10
19.60542101157759
 20
27.36316001550135
 30
0.0
 10
19.33401336091642
 20
26.86668010591719
 30
0.0
 10
18.8001905417626
 20
26.20520968507683
 30
0.0
 10
18.17467725735554
 20
25.62543111940597
 30
0.0
 10
17.69665016805892
 20
25.31707950077424
 30
0.0
 10
17.45509602879423
 20
25.16126487960066
 30
0.0
  0
LINE
  5
B1
330
1F
100
AcDbEntity
  8
0
  6
Continuous
 62
     7
370
    15
100
AcDbLine
 10
26.9111771099
 20
27.6127006904
 30
0.0
 11
29.74412836466326
 21
27.6127006904
 31
0.0
  0
LINE
  5
B2
330
1F
100
AcDbEntity
  8
0
  6
Continuous
 62
     7
370
    15
100
AcDbLine
 10
32.02929734372039
 20
37.09192015883397
 30
0.0
 11
26.9111771099
 21
27.6127006904
 31
0.0
  0
LINE
  5
B3
330
1F
100
AcDbEntity
  8
0
  6
Continuous
 62
     7
370
    15
100
AcDbLine
 10
23.3765487315
 20
38.5586466364
 30
0.0
 11
38.463964272
 21
38.5586466364
 31
0.0
  0
LINE
  5
B4
330
1F
100
AcDbEntity
  8
0
  6
Continuous
 62
     7
370
    15
100
AcDbLine
 10
26.3220723801
 20
43.8289169066
 30
0.0
 11
23.3765487315
 21
38.5586466364
 31
0.0
  0
LINE
  5
B5
330
1F
100
AcDbEntity
  8
0
  6
Continuous
 62
     7
370
    15
100
AcDbLine
 10
23.7249440018
 20
43.8289169066
 30
0.0
 11
26.3220723801
 21
43.8289169066
 31
0.0
  0
SPLINE
  5
B6
330
1F
100
AcDbEntity
  8
0
  6
Continuous
 62
     7
370
    15
100
AcDbSpline
210
0.0
220
0.0
230
1.0
 70
     8
 71
     3
 72
    11
 73
     7
 74
     0
 42
0.000000001
 43
0.0000000001
 40
0.0
 40
0.0
 40
0.0
 40
0.0
 40
0.2560963599028692
 40
0.506094312600262
 40
0.7506476413830848
 40
1.0
 40
1.0
 40
1.0
 40
1.0
 10
20.03828859636178
 20
42.73305542014121
 30
0.0
 10
20.32509774351748
 20
42.90285222421556
 30
0.0
 10
20.89188626886898
 20
43.23840247128793
 30
0.0
 10
21.81207485855116
 20
43.57407336319005
 30
0.0
 10
22.75847308946274
 20
43.78915850365242
 30
0.0
 10
23.40070694465183
 20
43.81557853564084
 30
0.0
 10
23.7249440017672
 20
43.82891690662768
 30
0.0
  0
SPLINE
  5
B7
330
1F
100
AcDbEntity
  8
0
  6
Continuous
 62
     7
370
    15
100
AcDbSpline
210
0.0
220
0.0
230
1.0
 70
     8
 71
     3
 72
    15
 73
    11
 74
     0
 42
0.000000001
 43
0.0000000001
 40
0.0
 40
0.0
 40
0.0
 40
0.0
 40
0.1300470704607562
 40
0.2562552906676848
 40
0.3798596759376936
 40
0.5024215785239085
 40
0.6239687151906911
 40
0.7476307584861197
 40
0.8725902046247872
 40
1.0
 40
1.0
 40
1.0
 40
1.0
 10
17.31447102879423
 20
38.98305542014121
 30
0.0
 10
17.3713151066156
 20
39.18096791247501
 30
0.0
 10
17.48332528595482
 20
39.57095073231153
 30
0.0
 10
17.72514867608499
 20
40.12237672310035
 30
0.0
 10
17.99572340389153
 20
40.64600947874207
 30
0.0
 10
18.31295305332046
 20
41.13469866197951
 30
0.0
 10
18.67697850889476
 20
41.58993541601127
 30
0.0
 10
19.09147878476347
 20
42.00431071213909
 30
0.0
 10
19.53961521862756
 20
42.39712520296784
 30
0.0
 10
19.87099165038859
 20
42.62035620277258
 30
0.0
 10
20.03828859636178
 20
42.73305542014121
 30
0.0
  0
SPLINE
  5
B8
330
1F
100
AcDbEntity
  8
0
  6
Continuous
 62
     7
370
    15
100
AcDbSpline
210
0.0
220
0.0
230
1.0
 70
     8
 71
     3
 72
    15
 73
    11
 74
     0
 42
0.000000001
 43
0.0000000001
 40
0.0
 40
0.0
 40
0.0
 40
0.0
 40
0.0986130851531868
 40
0.1966589034983318
 40
0.3031416353951737
 40
0.4220208642602997
 40
0.5532198452235932
 40
0.6903715466462116
 40
0.8392408799851251
 40
1.0
 40
1.0
 40
1.0
 40
1.0
 10
18.23296765041585
 20
35.31540339311418
 30
0.0
 10
18.10999529263905
 20
35.3739599810208
 30
0.0
 10
17.864757969383
 20
35.49073631300994
 30
0.0
 10
17.5737090430941
 20
35.79763257821204
 30
0.0
 10
17.34149242872115
 20
36.17824335455944
 30
0.0
 10
17.19002531885391
 20
36.64677938259302
 30
0.0
 10
17.10451219254382
 20
37.17192576776448
 30
0.0
 10
17.09222445240787
 20
37.74563106911279
 30
0.0
 10
17.16645900069589
 20
38.35532256834486
 30
0.0
 10
17.26388660706237
 20
38.76852215741804
 30
0.0
 10
17.31447102879423
 20
38.98305542014121
 30
0.0
  0
LINE
  5
B9
330
1F
100
AcDbEntity
  8
0
  6
Continuous
 62
     7
370
    15
100
AcDbLine
 10
14.1219034612
 20
27.6127006904
 30
0.0
 11
18.2329676504
 21
35.3154033931
 31
0.0
  0
SPLINE
  5
BA
330
1F
100
AcDbEntity
  8
0
  6
Continuous
 62
     7
370
    15
100
AcDbSpline
210
0.0
220
0.0
230
1.0
 70
     8
 71
     3
 72
    15
 73
    11
 74
     0
 42
0.000000001
 43
0.0000000001
 40
0.0
 40
0.0
 40
0.0
 40
0.0
 40
0.1522181052707334
 40
0.2917136047446506
 40
0.4216386748176418
 40
0.5422329696260917
 40
0.6591144493243217
 40
0.7726815171036784
 40
0.8841758942810601
 40
1.0
 40
1.0
 40
1.0
 40
1.0
 10
17.76421765041584
 20
29.17731217689796
 30
0.0
 10
17.69495851785144
 20
29.05323827400321
 30
0.0
 10
17.56222902955623
 20
28.81546074153564
 30
0.0
 10
17.33007046619292
 20
28.49738327724332
 30
0.0
 10
17.09374923828675
 20
28.21950833098445
 30
0.0
 10
16.82751364886081
 20
28.00108384033698
 30
0.0
 10
16.54768069527839
 20
27.82999175943225
 30
0.0
 10
16.25565358015801
 20
27.6981190291352
 30
0.0
 10
15.94310540703636
 20
27.62850562766611
 30
0.0
 10
15.73116100405381
 20
27.61803547771039
 30
0.0
 10
15.62317035311855
 20
27.61270069041148
 30
0.0
  0
LINE
  5
BB
330
1F
100
AcDbEntity
  8
0
  6
Continuous
 62
     7
370
    15
100
AcDbLine
 10
21.6345723801
 20
35.3154033931
 30
0.0
 11
17.7642176504
 21
29.1773121769
 31
0.0
  0
LINE
  5
BC
330
1F
100
AcDbEntity
  8
0
  6
Continuous
 62
     7
370
    15
100
AcDbLine
 10
25.3655690018
 20
35.3154033931
 30
0.0
 11
21.6345723801
 21
35.3154033931
 31
0.0
  0
LINE
  5
BD
330
1F
100
AcDbEntity
  8
0
  6
Continuous
 62
     7
370
    15
100
AcDbLine
 10
21.7042514342
 20
28.5375317715
 30
0.0
 11
25.3655690018
 21
35.3154033931
 31
0.0
  0
SPLINE
  5
BE
330
1F
100
AcDbEntity
  8
0
  6
Continuous
 62
     7
370
    15
100
AcDbSpline
210
0.0
220
0.0
230
1.0
 70
     8
 71
     3
 72
     9
 73
     5
 74
     0
 42
0.000000001
 43
0.0000000001
 40
0.0
 40
0.0
 40
0.0
 40
0.0
 40
0.4691691571238698
 40
1.0
 40
1.0
 40
1.0
 40
1.0
 10
21.08980886663206
 20
27.06160271743851
 30
0.0
 10
21.16608286285176
 20
27.30059327814273
 30
0.0
 10
21.32865534883375
 20
27.80998430923546
 30
0.0
 10
21.5740097504084
 20
28.28524744209093
 30
0.0
 10
21.70425143419963
 20
28.53753177149256
 30
0.0
  0
SPLINE
  5
BF
330
1F
100
AcDbEntity
  8
0
  6
Continuous
 62
     7
370
    15
100
AcDbSpline
210
0.0
220
0.0
230
1.0
 70
     8
 71
     3
 72
    15
 73
    11
 74
     0
 42
0.000000001
 43
0.0000000001
 40
0.0
 40
0.0
 40
0.0
 40
0.0
 40
0.1503614129697446
 40
0.2778558394645707
 40
0.3891855612385576
 40
0.4908642177594171
 40
0.5945795589176032
 40
0.7092203333291813
 40
0.8423284224075539
 40
1.0
 40
1.0
 40
1.0
 40
1.0
 10
23.03448792068613
 20
24.36945744716823
 30
0.0
 10
22.82887206914305
 20
24.37683440515329
 30
0.0
 10
22.44891045592502
 20
24.3904664322349
 30
0.0
 10
21.92821108574484
 20
24.51579328175892
 30
0.0
 10
21.50618742017869
 20
24.72294426628895
 30
0.0
 10
21.18797610608924
 20
25.02835414238632
 30
0.0
 10
20.99449760324752
 20
25.42927558459887
 30
0.0
 10
20.91776680132029
 20
25.90801685332358
 30
0.0
 10
20.95140979752141
 20
26.46431467203235
 30
0.0
 10
21.04114895132766
 20
26.85160140826383
 30
0.0
 10
21.08980886663206
 20
27.06160271743851
 30
0.0
  0
LINE
  5
C0
330
1F
100
AcDbEntity
  8
0
  6
Continuous
 62
     7
370
    15
100
AcDbLine
 10
35.8478325153
 20
24.3694574472
 30
0.0
 11
23.0344879207
 21
24.3694574472
 31
0.0
  0
SPLINE
  5
C3
330
1F
100
AcDbEntity
  8
0
  6
Continuous
 62
     7
370
    15
100
AcDbSpline
210
0.0
220
0.0
230
1.0
 70
     8
 71
     3
 72
    11
 73
     7
 74
     0
 42
0.000000001
 43
0.0000000001
 40
0.2184766082723807
 40
0.2184766082723807
 40
0.2184766082723807
 40
0.2184766082723807
 40
0.2611951357448157
 40
0.5142835032757992
 40
0.7577493807667222
 40
0.8563885556879638
 40
0.8563885556879638
 40
0.8563885556879638
 40
0.8563885556879638
 10
55.15485631543628
 20
35.69718724536975
 30
0.0
 10
55.12134975439377
 20
35.68358679277298
 30
0.0
 10
54.8884149510919
 20
35.59174633778715
 30
0.0
 10
54.44992658220827
 20
35.45958128866748
 30
0.0
 10
53.95382716138635
 20
35.36080851175975
 30
0.0
 10
53.66522446328088
 20
35.33688210158387
 30
0.0
 10
53.58184135765671
 20
35.33160218149277
 30
0.0
  0
SPLINE
  5
C4
330
1F
100
AcDbEntity
  8
0
  6
Continuous
 62
     7
370
    15
100
AcDbSpline
210
0.0
220
0.0
230
1.0
 70
     8
 71
     3
 72
    14
 73
    10
 74
     0
 42
0.000000001
 43
0.0000000001
 40
0.0
 40
0.0
 40
0.0
 40
0.0
 40
0.1273076070559043
 40
0.2524420661132307
 40
0.375530146215504
 40
0.4989753624419079
 40
0.621379246732844
 40
0.7447970276402677
 40
0.7754811401009741
 40
0.7754811401009741
 40
0.7754811401009741
 40
0.7754811401009741
 10
51.78279873149691
 20
30.85594393365472
 30
0.0
 10
51.90312859992696
 20
31.15969638268776
 30
0.0
 10
52.14173429917853
 20
31.76201620939841
 30
0.0
 10
52.5712211410377
 20
32.62626163507765
 30
0.0
 10
53.07708698376327
 20
33.43617499955477
 30
0.0
 10
53.6458527583253
 20
34.19413849182086
 30
0.0
 10
54.27673055203436
 20
34.90268761411228
 30
0.0
 10
54.79409622662688
 20
35.38902572704717
 30
0.0
 10
55.0945283000191
 20
35.64652549115589
 30
0.0
 10
55.1548563154354
 20
35.69718724537191
 30
0.0
  0
SPLINE
  5
C5
330
1F
100
AcDbEntity
  8
0
  6
Continuous
 62
     7
370
    15
100
AcDbSpline
210
0.0
220
0.0
230
1.0
 70
     8
 71
     3
 72
     9
 73
     5
 74
     0
 42
0.000000001
 43
0.0000000001
 40
0.0
 40
0.0
 40
0.0
 40
0.0
 40
0.4889250336785696
 40
1.0
 40
1.0
 40
1.0
 40
1.0
 10
51.56742710987529
 20
30.17182231203309
 30
0.0
 10
51.60058121582837
 20
30.28392915068173
 30
0.0
 10
51.66839141917106
 20
30.5132216411995
 30
0.0
 10
51.74410395155743
 20
30.74002858333921
 30
0.0
 10
51.78279873149691
 20
30.85594393365472
 30
0.0
  0
SPLINE
  5
C6
330
1F
100
AcDbEntity
  8
0
  6
Continuous
 62
     7
370
    15
100
AcDbSpline
210
0.0
220
0.0
230
1.0
 70
     8
 71
     3
 72
    11
 73
     7
 74
     0
 42
0.000000001
 43
0.0000000001
 40
0.4941813697834633
 40
0.4941813697834633
 40
0.4941813697834633
 40
0.4941813697834633
 40
0.5886393410106401
 40
0.7149868791437596
 40
0.8518644288100254
 40
1.0
 40
1.0
 40
1.0
 40
1.0
 10
51.44668796654468
 20
27.61270069014181
 30
0.0
 10
51.40732166799097
 20
27.76927650522947
 30
0.0
 10
51.33595124176135
 20
28.13992575644183
 30
0.0
 10
51.32772032400084
 20
28.75264447402613
 30
0.0
 10
51.39574176063149
 20
29.45252312515919
 30
0.0
 10
51.50871122837272
 20
29.92582411820113
 30
0.0
 10
51.56742710987529
 20
30.17182231203309
 30
0.0
  0
LINE
  5
C7
330
1F
100
AcDbEntity
  8
0
  6
Continuous
 62
     7
370
    15
100
AcDbLine
 10
49.351633191
 20
27.6127006904
 30
0.0
 11
51.44668796649999
 21
27.6127006901
 31
0.0
  0
LINE
  5
C8
330
1F
100
AcDbEntity
  8
0
  6
Continuous
 62
     7
370
    15
100
AcDbLine
 10
53.58184135770001
 20
35.3316021815
 30
0.0
 11
49.351633191
 21
27.6127006904
 31
0.0
  0
SPLINE
  5
C9
330
1F
100
AcDbEntity
  8
0
  6
Continuous
 62
     7
370
    15
100
AcDbSpline
210
0.0
220
0.0
230
1.0
 70
     8
 71
     3
 72
    14
 73
    10
 74
     0
 42
0.000000001
 43
0.0000000001
 40
0.1355791182332607
 40
0.1355791182332607
 40
0.1355791182332607
 40
0.1355791182332607
 40
0.2557297311400938
 40
0.3808947953885556
 40
0.5045890910501935
 40
0.6277573936597404
 40
0.7509999654203626
 40
0.8748210115036137
 40
1.0
 40
1.0
 40
1.0
 40
1.0
 10
57.35722608835145
 20
37.15991930791997
 30
0.0
 10
57.59758904377662
 20
37.28655093568669
 30
0.0
 10
58.09984972097495
 20
37.5236936890288
 30
0.0
 10
58.8700188081927
 20
37.84663941553799
 30
0.0
 10
59.67192637217969
 20
38.10480672058385
 30
0.0
 10
60.48446976508941
 20
38.30825119865336
 30
0.0
 10
61.30955510434055
 20
38.45597957576096
 30
0.0
 10
62.148566083652
 20
38.53716430129975
 30
0.0
 10
62.71169299122406
 20
38.55145987064578
 30
0.0
 10
62.99479197474015
 20
38.55864663635742
 30
0.0
  0
SPLINE
  5
CA
330
1F
100
AcDbEntity
  8
0
  6
Continuous
 62
     7
370
    15
100
AcDbSpline
210
0.0
220
0.0
230
1.0
 70
     8
 71
     3
 72
     9
 73
     5
 74
     0
 42
0.000000001
 43
0.0000000001
 40
0.0
 40
0.0
 40
0.0
 40
0.0
 40
0.2562465205354146
 40
0.4475439144394264
 40
0.4475439144394264
 40
0.4475439144394264
 40
0.4475439144394264
 10
58.32882913690232
 20
38.55864663635742
 30
0.0
 10
58.16959380895204
 20
38.27327897658451
 30
0.0
 10
57.89148348831623
 20
37.77487392803076
 30
0.0
 10
57.52475698262244
 20
37.33733736876283
 30
0.0
 10
57.35722608834482
 20
37.15991930791147
 30
0.0
  0
LINE
  5
CB
330
1F
100
AcDbEntity
  8
0
  6
Continuous
 62
     7
370
    15
100
AcDbLine
 10
53.7268905066
 20
38.5586466343
 30
0.0
 11
58.32882913689999
 21
38.5586466364
 31
0.0
  0
SPLINE
  5
CC
330
1F
100
AcDbEntity
  8
0
  6
Continuous
 62
     7
370
    15
100
AcDbSpline
210
0.0
220
0.0
230
1.0
 70
     8
 71
     3
 72
    26
 73
    22
 74
     0
 42
0.000000001
 43
0.0000000001
 40
0.3986743447537605
 40
0.3986743447537605
 40
0.3986743447537605
 40
0.3986743447537605
 40
0.4508778757027085
 40
0.509157241284028
 40
0.5911424868631066
 40
0.6513266337276863
 40
0.7016746430564182
 40
0.7478311116420774
 40
0.7909631772958005
 40
0.8195036106469354
 40
0.8459798461980819
 40
0.9103997772226996
 40
0.9711627898741128
 40
1.0
 40
1.0
 40
1.0
 40
1.036128139954251
 40
1.091044439724734
 40
1.148893028736981
 40
1.206531474042712
 40
1.251645018452954
 40
1.251645018452954
 40
1.251645018452954
 40
1.251645018452954
 10
53.72689050661594
 20
38.55864663432099
 30
0.0
 10
54.19285591625188
 20
38.80801726269056
 30
0.0
 10
55.10659218540292
 20
39.47374096279997
 30
0.0
 10
56.42685220121945
 20
40.91943524753685
 30
0.0
 10
57.29575055656682
 20
42.79281899621412
 30
0.0
 10
57.57837776593142
 20
44.75270832186852
 30
0.0
 10
57.17727529507314
 20
46.32313411384154
 30
0.0
 10
56.30870548410175
 20
47.49440239063218
 30
0.0
 10
55.19042693089028
 20
48.0195848699194
 30
0.0
 10
54.19671461562304
 20
48.11788791082364
 30
0.0
 10
52.99034695467597
 20
48.00326641751182
 30
0.0
 10
51.53424183300661
 20
47.41434373476565
 30
0.0
 10
50.32595818640229
 20
46.40988497873461
 30
0.0
 10
49.73031757825737
 20
45.72732707304962
 30
0.0
 10
49.55212057164954
 20
45.49675710098711
 30
0.0
 10
49.32886990467961
 20
45.20789197902987
 30
0.0
 10
48.8196898564784
 20
44.43685151711835
 30
0.0
 10
48.26803462471909
 20
43.02584344148974
 30
0.0
 10
47.99923647243039
 20
41.29876842478361
 30
0.0
 10
48.40021655667406
 20
39.67389312476816
 30
0.0
 10
49.1052604929087
 20
38.83851578768238
 30
0.0
 10
49.47333013800971
 20
38.55864662664493
 30
0.0
  0
LINE
  5
CD
330
1F
100
AcDbEntity
  8
0
  6
Continuous
 62
     7
370
    15
100
AcDbLine
 10
45.3115149477
 20
38.5586466364
 30
0.0
 11
49.47333014539999
 21
38.5586466364
 31
0.0
  0
LINE
  5
CE
330
1F
100
AcDbEntity
  8
0
  6
Continuous
 62
     7
370
    15
100
AcDbLine
 10
35.6958054883
 20
28.2904878526
 30
0.0
 11
45.3115149477
 21
38.5586466364
 31
0.0
  0
LINE
  5
CF
330
1F
100
AcDbEntity
  8
0
  6
Continuous
 62
     7
370
    15
100
AcDbLine
 10
38.463964272
 20
38.5586466364
 30
0.0
 11
35.6958054883
 21
28.2904878526
 31
0.0
  0
LINE
  5
D0
330
1F
100
AcDbEntity
  8
0
  6
Continuous
 62
     7
370
    15
100
AcDbLine
 10
29.74412836466327
 20
27.6127006904
 30
0.0
 11
32.02929734372039
 21
37.09192015883397
 31
0.0
  0
LINE
  5
D1
330
1F
100
AcDbEntity
  8
0
  6
Continuous
 62
     7
370
    15
100
AcDbLine
 10
46.1033223801
 20
35.3154033931
 30
0.0
 11
35.8478325153
 21
24.3694574472
 31
0.0
  0
LINE
  5
D2
330
1F
100
AcDbEntity
  8
0
  6
Continuous
 62
     7
370
    15
100
AcDbLine
 10
46.80859687069999
 20
35.3154033931
 30
0.0
 11
46.1033223801
 21
35.3154033931
 31
0.0
  0
LINE
  5
D3
330
1F
100
AcDbEntity
  8
0
  6
Continuous
 62
     7
370
    15
100
AcDbLine
 10
43.12485954229999
 20
28.49319055530001
 30
0.0
 11
46.80859687069999
 21
35.3154033931
 31
0.0
  0
SPLINE
  5
D4
330
1F
100
AcDbEntity
  8
0
  6
Continuous
 62
     7
370
    15
100
AcDbSpline
210
0.0
220
0.0
230
1.0
 70
     8
 71
     3
 72
     9
 73
     5
 74
     0
 42
0.000000001
 43
0.0000000001
 40
0.0
 40
0.0
 40
0.0
 40
0.0
 40
0.4710677662062519
 40
1.0
 40
1.0
 40
1.0
 40
1.0
 10
42.47241021798338
 20
26.93491352824931
 30
0.0
 10
42.55191053012939
 20
27.1891114778912
 30
0.0
 10
42.72067672015394
 20
27.72873224559744
 30
0.0
 10
42.98503298998737
 20
28.22872713927695
 30
0.0
 10
43.12485954230774
 20
28.49319055527634
 30
0.0
  0
SPLINE
  5
D5
330
1F
100
AcDbEntity
  8
0
  6
Continuous
 62
     7
370
    15
100
AcDbSpline
210
0.0
220
0.0
230
1.0
 70
     8
 71
     3
 72
    15
 73
    11
 74
     0
 42
0.000000001
 43
0.0000000001
 40
0.0
 40
0.0
 40
0.0
 40
0.0
 40
0.1473663977874265
 40
0.271984152449155
 40
0.3814193681365345
 40
0.4830575132639181
 40
0.5872547443213683
 40
0.7043175420968228
 40
0.8399469097766965
 40
1.0
 40
1.0
 40
1.0
 40
1.0
 10
44.23338994771313
 20
24.36945744716823
 30
0.0
 10
44.04474504639629
 20
24.37483361661313
 30
0.0
 10
43.69657596328869
 20
24.38475604745117
 30
0.0
 10
43.21867348672153
 20
24.50318184424868
 30
0.0
 10
42.83630062520653
 20
24.70820744745683
 30
0.0
 10
42.5460309455284
 20
24.99828949547599
 30
0.0
 10
42.37123948349674
 20
25.38097936823111
 30
0.0
 10
42.31036752454257
 20
25.83719735178501
 30
0.0
 10
42.34030593141468
 20
26.36672586174785
 30
0.0
 10
42.42601555032144
 20
26.73536755860929
 30
0.0
 10
42.47241021798338
 20
26.93491352824931
 30
0.0
  0
LINE
  5
D6
330
1F
100
AcDbEntity
  8
0
  6
Continuous
 62
     7
370
    15
100
AcDbLine
 10
51.0302649477
 20
24.3694574472
 30
0.0
 11
44.2333899477
 21
24.3694574472
 31
0.0
  0
SPLINE
  5
D7
330
1F
100
AcDbEntity
  8
0
  6
Continuous
 62
     7
370
    15
100
AcDbSpline
210
0.0
220
0.0
230
1.0
 70
     8
 71
     3
 72
    11
 73
     7
 74
     0
 42
0.000000001
 43
0.0000000001
 40
0.0
 40
0.0
 40
0.0
 40
0.0
 40
0.2618983519053558
 40
0.515139989878943
 40
0.7582560590079802
 40
1.0
 40
1.0
 40
1.0
 40
1.0
 10
53.39935278555096
 20
24.97756555527634
 30
0.0
 10
53.20500808437953
 20
24.88388457363815
 30
0.0
 10
52.82274249673406
 20
24.69961911499033
 30
0.0
 10
52.22549904301409
 20
24.51378774611073
 30
0.0
 10
51.62862187328717
 20
24.39104110668062
 30
0.0
 10
51.22934060796318
 20
24.37663841405337
 30
0.0
 10
51.03026494771311
 20
24.36945744716823
 30
0.0
  0
SPLINE
  5
D8
330
1F
100
AcDbEntity
  8
0
  6
Continuous
 62
     7
370
    15
100
AcDbSpline
210
0.0
220
0.0
230
1.0
 70
     8
 71
     3
 72
     8
 73
     4
 74
     0
 42
0.000000001
 43
0.0000000001
 40
0.9274012880123285
 40
0.9274012880123285
 40
0.9274012880123285
 40
0.9274012880123285
 40
1.0
 40
1.0
 40
1.0
 40
1.0
 10
53.63461131112146
 20
25.11365603215789
 30
0.0
 10
53.55652510769485
 20
25.06782143693077
 30
0.0
 10
53.47793894662291
 20
25.02269349610355
 30
0.0
 10
53.39935278555096
 20
24.97756555527634
 30
0.0
  0
SPLINE
  5
D9
330
1F
100
AcDbEntity
  8
0
  6
Continuous
 62
     7
370
    15
100
AcDbSpline
210
0.0
220
0.0
230
1.0
 70
     8
 71
     3
 72
    14
 73
    10
 74
     0
 42
0.000000001
 43
0.0000000001
 40
0.0
 40
0.0
 40
0.0
 40
0.0
 40
0.1476245857205278
 40
0.2878548987884581
 40
0.4199111329301008
 40
0.5456967626352639
 40
0.665908217475902
 40
0.7808616796715173
 40
0.8134436844367627
 40
0.8134436844367627
 40
0.8134436844367627
 40
0.8134436844367627
 10
57.47747778555096
 20
24.36945744716823
 30
0.0
 10
57.23876497451018
 20
24.37293898012573
 30
0.0
 10
56.77329608444511
 20
24.37972766178209
 30
0.0
 10
56.09619963881151
 20
24.43710139884328
 30
0.0
 10
55.45915507691375
 20
24.53146770339671
 30
0.0
 10
54.86158529566086
 20
24.66319923455527
 30
0.0
 10
54.30360349316924
 20
24.8359433632607
 30
0.0
 10
53.89886881943271
 20
24.99058307939939
 30
0.0
 10
53.68210884273254
 20
25.09076196193454
 30
0.0
 10
53.63461131112586
 20
25.11365603215036
 30
0.0
  0
LINE
  5
DA
330
1F
100
AcDbEntity
  8
0
  6
Continuous
 62
     7
370
    15
100
AcDbLine
 10
67.7709744072
 20
24.3694574472
 30
0.0
 11
57.4774777856
 21
24.3694574472
 31
0.0
  0
SPLINE
  5
DB
330
1F
100
AcDbEntity
  8
0
  6
Continuous
 62
     7
370
    15
100
AcDbSpline
210
0.0
220
0.0
230
1.0
 70
     8
 71
     3
 72
    11
 73
     7
 74
     0
 42
0.000000001
 43
0.0000000001
 40
0.0950077845571844
 40
0.0950077845571844
 40
0.0950077845571844
 40
0.0950077845571844
 40
0.2576697852010817
 40
0.5072817508983484
 40
0.7515740714495731
 40
1.0
 40
1.0
 40
1.0
 40
1.0
 10
70.29686251974927
 20
25.02649304473227
 30
0.0
 10
70.15806574996293
 20
24.9507127113959
 30
0.0
 10
69.80280601856516
 20
24.76602255256788
 30
0.0
 10
69.19901598332875
 20
24.55266634177893
 30
0.0
 10
68.49146087409844
 20
24.39904888419023
 30
0.0
 10
68.01247602716926
 20
24.37937627327656
 30
0.0
 10
67.77097440717259
 20
24.36945744716823
 30
0.0
  0
LINE
  5
DD
330
1F
100
AcDbEntity
  8
0
  6
Continuous
 62
     7
370
    15
100
AcDbLine
 10
59.38415008279999
 20
27.6127006904
 30
0.0
 11
67.88601478716119
 21
27.6127006904
 31
0.0
  0
SPLINE
  5
DE
330
1F
100
AcDbEntity
  8
0
  6
Continuous
 62
     7
370
    15
100
AcDbSpline
210
0.0
220
0.0
230
1.0
 70
     8
 71
     3
 72
    15
 73
    11
 74
     0
 42
0.000000001
 43
0.0000000001
 40
0.0
 40
0.0
 40
0.0
 40
0.0
 40
0.1369492623091729
 40
0.2524250524998385
 40
0.355239387723829
 40
0.4556505062517969
 40
0.5618634055108966
 40
0.6836699822505184
 40
0.8285360469742094
 40
1.0
 40
1.0
 40
1.0
 40
1.0
 10
57.46480886663206
 20
29.49403514987093
 30
0.0
 10
57.43041091619414
 20
29.34715544141824
 30
0.0
 10
57.36700857069206
 20
29.07642657809929
 30
0.0
 10
57.37744973050073
 20
28.68216976056263
 30
0.0
 10
57.47711562196744
 20
28.34118254023657
 30
0.0
 10
57.68461967205887
 20
28.06297312267949
 30
0.0
 10
57.98643786823547
 20
27.85694620511629
 30
0.0
 10
58.37276527137384
 20
27.71362410475234
 30
0.0
 10
58.84842016762844
 20
27.62844580032792
 30
0.0
 10
59.19583621568058
 20
27.61823523767701
 30
0.0
 10
59.38415008284825
 20
27.61270069041148
 30
0.0
  0
SPLINE
  5
DF
330
1F
100
AcDbEntity
  8
0
  6
Continuous
 62
     7
370
    15
100
AcDbSpline
210
0.0
220
0.0
230
1.0
 70
     8
 71
     3
 72
     9
 73
     5
 74
     0
 42
0.000000001
 43
0.0000000001
 40
0.0
 40
0.0
 40
0.0
 40
0.0
 40
0.5386994605509523
 40
1.0
 40
1.0
 40
1.0
 40
1.0
 10
57.94622778555097
 20
30.58989663635742
 30
0.0
 10
57.84286246211446
 20
30.40045754642396
 30
0.0
 10
57.65098307294486
 20
30.04879747655919
 30
0.0
 10
57.52357998146102
 20
29.66916145254361
 30
0.0
 10
57.46480886663206
 20
29.49403514987093
 30
0.0
  0
LINE
  5
E0
330
1F
100
AcDbEntity
  8
0
  6
Continuous
 62
     7
370
    15
100
AcDbLine
 10
60.6573764342
 20
35.3154033931
 30
0.0
 11
57.9462277856
 21
30.5898966364
 31
0.0
  0
LINE
  5
E1
330
1F
100
AcDbEntity
  8
0
  6
Continuous
 62
     7
370
    15
100
AcDbLine
 10
63.08980886659999
 20
35.3154033931
 30
0.0
 11
60.6573764342
 21
35.3154033931
 31
0.0
  0
SPLINE
  5
E2
330
1F
100
AcDbEntity
  8
0
  6
Continuous
 62
     7
370
    15
100
AcDbSpline
210
0.0
220
0.0
230
1.0
 70
     8
 71
     3
 72
    11
 73
     7
 74
     0
 42
0.000000001
 43
0.0000000001
 40
0.0
 40
0.0
 40
0.0
 40
0.0
 40
0.060273068167019
 40
0.2557404159660281
 40
0.5602073686055284
 40
1.0
 40
1.0
 40
1.0
 40
1.0
 10
62.93778183960504
 20
34.77063987960067
 30
0.0
 10
62.94223426678761
 20
34.78112582717694
 30
0.0
 10
62.96112604738477
 20
34.82561801376218
 30
0.0
 10
62.97536226868203
 20
34.93153693839527
 30
0.0
 10
63.03854455202744
 20
35.09777301261072
 30
0.0
 10
63.0707677571921
 20
35.23456891937575
 30
0.0
 10
63.08980886663204
 20
35.31540339311418
 30
0.0
  0
SPLINE
  5
E3
330
1F
100
AcDbEntity
  8
0
  6
Continuous
 62
     7
370
    15
100
AcDbSpline
210
0.0
220
0.0
230
1.0
 70
     8
 71
     3
 72
    19
 73
    15
 74
     0
 42
0.000000001
 43
0.0000000001
 40
0.0
 40
0.0
 40
0.0
 40
0.0
 40
0.0609618091691141
 40
0.1171886989775881
 40
0.1721375379701768
 40
0.2265825053430479
 40
0.2790803312032792
 40
0.3338840831330943
 40
0.391445793989988
 40
0.4510461779863243
 40
0.5758001794362361
 40
0.7057197773117531
 40
0.8452406991599016
 40
1.0
 40
1.0
 40
1.0
 40
1.0
 10
65.2055183260915
 20
30.45053852824931
 30
0.0
 10
65.0891629673279
 20
30.45394287743592
 30
0.0
 10
64.86548960037199
 20
30.46048715913427
 30
0.0
 10
64.54057877312322
 20
30.51781455335693
 30
0.0
 10
64.24097770128175
 20
30.62138155992813
 30
0.0
 10
63.96345618067825
 20
30.75902195535727
 30
0.0
 10
63.70862613544001
 20
30.93495980216041
 30
0.0
 10
63.47880491088377
 20
31.15177531882643
 30
0.0
 10
63.27916578943199
 20
31.41341461507977
 30
0.0
 10
63.03805092250513
 20
31.80768667950085
 30
0.0
 10
62.81980116671793
 20
32.37308202215409
 30
0.0
 10
62.71189556575131
 20
33.12154724009712
 30
0.0
 10
62.73496658503415
 20
33.93619357625412
 30
0.0
 10
62.8678825426557
 20
34.48305199539884
 30
0.0
 10
62.93778183960502
 20
34.77063987960067
 30
0.0
  0
SPLINE
  5
E4
330
1F
100
AcDbEntity
  8
0
  6
Continuous
 62
     7
370
    15
100
AcDbSpline
210
0.0
220
0.0
230
1.0
 70
     8
 71
     3
 72
     9
 73
     5
 74
     0
 42
0.000000001
 43
0.0000000001
 40
0.0
 40
0.0
 40
0.0
 40
0.0
 40
0.1334521707538913
 40
0.1483656154647466
 40
0.1483656154647466
 40
0.1483656154647466
 40
0.1483656154647466
 10
69.76632913690231
 20
34.53626487960066
 30
0.0
 10
69.67980004158265
 20
34.25842395490632
 30
0.0
 10
69.58360121311712
 20
33.9495339641276
 30
0.0
 10
69.45592986908606
 20
33.6530570838283
 30
0.0
 10
69.44279008390583
 20
33.62338292306919
 30
0.0
  0
SPLINE
  5
E5
330
1F
100
AcDbEntity
  8
0
  6
Continuous
 62
     7
370
    15
100
AcDbSpline
210
0.0
220
0.0
230
1.0
 70
     8
 71
     3
 72
    15
 73
    11
 74
     0
 42
0.000000001
 43
0.0000000001
 40
0.0
 40
0.0
 40
0.0
 40
0.0
 40
0.1244051226998017
 40
0.2388447156393598
 40
0.3501254630672765
 40
0.4683118822460847
 40
0.5907309831705835
 40
0.7157928513735432
 40
0.8509050218720723
 40
1.0
 40
1.0
 40
1.0
 40
1.0
 10
67.32756224501043
 20
38.55864663635742
 30
0.0
 10
67.55727493699028
 20
38.54426793273937
 30
0.0
 10
67.99829907975864
 20
38.51666233819162
 30
0.0
 10
68.61769625971517
 20
38.2985469577401
 30
0.0
 10
69.13029804804255
 20
37.91053056967798
 30
0.0
 10
69.53224619500897
 20
37.39314804253368
 30
0.0
 10
69.8189525988192
 20
36.77613976247217
 30
0.0
 10
69.95963043575364
 20
36.07832209859615
 30
0.0
 10
69.94052892580143
 20
35.31747741935538
 30
0.0
 10
69.82626956209789
 20
34.80507239134873
 30
0.0
 10
69.76632913690231
 20
34.53626487960066
 30
0.0
  0
LINE
  5
E6
330
1F
100
AcDbEntity
  8
0
  6
Continuous
 62
     7
370
    15
100
AcDbLine
 10
62.9947919747
 20
38.5586466364
 30
0.0
 11
67.327562245
 21
38.5586466364
 31
0.0
  0
LINE
  5
E7
330
1F
100
AcDbEntity
  8
0
  6
Continuous
 62
     7
370
    15
100
AcDbLine
 10
75.6181027856
 20
27.6127006904
 30
0.0
 11
89.1675115693
 21
27.6127006904
 31
0.0
  0
SPLINE
  5
E8
330
1F
100
AcDbEntity
  8
0
  6
Continuous
 62
     7
370
    15
100
AcDbSpline
210
0.0
220
0.0
230
1.0
 70
     8
 71
     3
 72
    15
 73
    11
 74
     0
 42
0.000000001
 43
0.0000000001
 40
0.0
 40
0.0
 40
0.0
 40
0.0
 40
0.1349681360323386
 40
0.2511165131158221
 40
0.3533771772146577
 40
0.4524584151397046
 40
0.5594415777081407
 40
0.6822250768490524
 40
0.8277615282888025
 40
1.0
 40
1.0
 40
1.0
 40
1.0
 10
73.82545075852394
 20
29.34834258230336
 30
0.0
 10
73.79364758228785
 20
29.21403758866268
 30
0.0
 10
73.73447581806866
 20
28.96415489272762
 30
0.0
 10
73.74569309257845
 20
28.60038218926341
 30
0.0
 10
73.83787068278255
 20
28.28445697019311
 30
0.0
 10
74.0361979359876
 20
28.0322351508684
 30
0.0
 10
74.31473219769781
 20
27.8397003242117
 30
0.0
 10
74.67420571584145
 20
27.70128705468017
 30
0.0
 10
75.11854895552767
 20
27.62277029829533
 30
0.0
 10
75.44251087495655
 20
27.61624013217129
 30
0.0
 10
75.61810278555096
 20
27.61270069041148
 30
0.0
  0
SPLINE
  5
E9
330
1F
100
AcDbEntity
  8
0
  6
Continuous
 62
     7
370
    15
100
AcDbSpline
210
0.0
220
0.0
230
1.0
 70
     8
 71
     3
 72
     9
 73
     5
 74
     0
 42
0.000000001
 43
0.0000000001
 40
0.0
 40
0.0
 40
0.0
 40
0.0
 40
0.5365390663627051
 40
1.0
 40
1.0
 40
1.0
 40
1.0
 10
74.16751156933474
 20
30.15915339311417
 30
0.0
 10
74.09291080166983
 20
30.01973344857344
 30
0.0
 10
73.95387010110976
 20
29.75988294880293
 30
0.0
 10
73.86611965992329
 20
29.47867259529065
 30
0.0
 10
73.82545075852394
 20
29.34834258230336
 30
0.0
  0
LINE
  5
EA
330
1F
100
AcDbEntity
  8
0
  6
Continuous
 62
     7
370
    15
100
AcDbLine
 10
77.05602508279999
 20
35.3154033931
 30
0.0
 11
74.1675115693
 21
30.1591533931
 31
0.0
  0
LINE
  5
EB
330
1F
100
AcDbEntity
  8
0
  6
Continuous
 62
     7
370
    15
100
AcDbLine
 10
80.7046737315
 20
35.3154033931
 30
0.0
 11
77.05602508279999
 21
35.3154033931
 31
0.0
  0
LINE
  5
EC
330
1F
100
AcDbEntity
  8
0
  6
Continuous
 62
     7
370
    15
100
AcDbLine
 10
77.8795048126
 20
30.8559439337
 30
0.0
 11
80.7046737315
 21
35.3154033931
 31
0.0
  0
LINE
  5
ED
330
1F
100
AcDbEntity
  8
0
  6
Continuous
 62
     7
370
    15
100
AcDbLine
 10
83.5551804883
 20
30.8559439337
 30
0.0
 11
77.8795048126
 21
30.8559439337
 31
0.0
  0
SPLINE
  5
EE
330
1F
100
AcDbEntity
  8
0
  6
Continuous
 62
     7
370
    15
100
AcDbSpline
210
0.0
220
0.0
230
1.0
 70
     8
 71
     3
 72
    15
 73
    11
 74
     0
 42
0.000000001
 43
0.0000000001
 40
0.0
 40
0.0
 40
0.0
 40
0.0
 40
0.121768562824148
 40
0.2418394816181274
 40
0.3620685966846589
 40
0.4836731508515387
 40
0.6064056780156603
 40
0.7331982704857443
 40
0.8640629472615772
 40
1.0
 40
1.0
 40
1.0
 40
1.0
 10
86.15864332609152
 20
34.51092704176283
 30
0.0
 10
86.11199758608599
 20
34.33014477397318
 30
0.0
 10
86.01935642057501
 20
33.97110062568066
 30
0.0
 10
85.80926434921408
 20
33.45669552324038
 30
0.0
 10
85.56643717560367
 20
32.95752233475119
 30
0.0
 10
85.25784109110128
 20
32.49066008737753
 30
0.0
 10
84.90701706524418
 20
32.04276901081357
 30
0.0
 10
84.50689357299478
 20
31.61828320367821
 30
0.0
 10
84.05611967015476
 20
31.21641063647265
 30
0.0
 10
83.72426327588077
 20
30.97761282513153
 30
0.0
 10
83.55518048825365
 20
30.85594393365472
 30
0.0
  0
SPLINE
  5
EF
330
1F
100
AcDbEntity
  8
0
  6
Continuous
 62
     7
370
    15
100
AcDbSpline
210
0.0
220
0.0
230
1.0
 70
     8
 71
     3
 72
    15
 73
    11
 74
     0
 42
0.000000001
 43
0.0000000001
 40
0.0
 40
0.0
 40
0.0
 40
0.0
 40
0.1350844555030222
 40
0.2594536158585853
 40
0.3784665437586371
 40
0.4948209321934801
 40
0.6111399348334635
 40
0.7315627053365908
 40
0.8608228185539365
 40
1.0
 40
1.0
 40
1.0
 40
1.0
 10
84.77773116392933
 20
37.76050474446552
 30
0.0
 10
84.92438980178137
 20
37.66978081535965
 30
0.0
 10
85.20607368425263
 20
37.49552944525371
 30
0.0
 10
85.5672851104728
 20
37.17204447902846
 30
0.0
 10
85.85858426890692
 20
36.81512336032984
 30
0.0
 10
86.07041808983026
 20
36.41660701761757
 30
0.0
 10
86.20331725540743
 20
35.98431819983628
 30
0.0
 10
86.26770204541727
 20
35.52030688927232
 30
0.0
 10
86.25250323515871
 20
35.02239056850957
 30
0.0
 10
86.19069115157465
 20
34.68556277291866
 30
0.0
 10
86.1586433260915
 20
34.51092704176283
 30
0.0
  0
SPLINE
  5
F0
330
1F
100
AcDbEntity
  8
0
  6
Continuous
 62
     7
370
    15
100
AcDbSpline
210
0.0
220
0.0
230
1.0
 70
     8
 71
     3
 72
    11
 73
     7
 74
     0
 42
0.000000001
 43
0.0000000001
 40
0.0
 40
0.0
 40
0.0
 40
0.0
 40
0.2791467612427055
 40
0.5369167514006975
 40
0.7759418650350599
 40
1.0
 40
1.0
 40
1.0
 40
1.0
 10
81.22409940717259
 20
38.55864663635742
 30
0.0
 10
81.5667192953237
 20
38.54906401763285
 30
0.0
 10
82.22572159394402
 20
38.53063260724282
 30
0.0
 10
83.16913181754101
 20
38.38675842435371
 30
0.0
 10
84.02324815697892
 20
38.13989274319886
 30
0.0
 10
84.53171475530728
 20
37.88421286255811
 30
0.0
 10
84.77773116392933
 20
37.76050474446552
 30
0.0
  0
LINE
  5
F1
330
1F
100
AcDbEntity
  8
0
  6
Continuous
 62
     7
370
    15
100
AcDbLine
 10
78.7726635964
 20
38.5586466364
 30
0.0
 11
81.2240994072
 21
38.5586466364
 31
0.0
  0
SPLINE
  5
F2
330
1F
100
AcDbEntity
  8
0
  6
Continuous
 62
     7
370
    15
100
AcDbSpline
210
0.0
220
0.0
230
1.0
 70
     8
 71
     3
 72
    15
 73
    11
 74
     0
 42
0.000000001
 43
0.0000000001
 40
0.0
 40
0.0
 40
0.0
 40
0.0
 40
0.1305565780318679
 40
0.2577161749315333
 40
0.3833530199317871
 40
0.5073420494652842
 40
0.6297503130358784
 40
0.7521102431216251
 40
0.8758935913222625
 40
1.0
 40
1.0
 40
1.0
 40
1.0
 10
72.51421765041583
 20
36.63930542014121
 30
0.0
 10
72.7594588631485
 20
36.79227204126704
 30
0.0
 10
73.24356030203279
 20
37.09422521040667
 30
0.0
 10
73.99500810046506
 20
37.490326813682
 30
0.0
 10
74.76199085184624
 20
37.82007761665476
 30
0.0
 10
75.5424834139893
 20
38.0848384921414
 30
0.0
 10
76.33161007485096
 20
38.29563644061849
 30
0.0
 10
77.13344050271141
 20
38.44972909251808
 30
0.0
 10
77.9492824572568
 20
38.53853604406758
 30
0.0
 10
78.497964861243
 20
38.55193728390551
 30
0.0
 10
78.77266359636178
 20
38.55864663635742
 30
0.0
  0
SPLINE
  5
F3
330
1F
100
AcDbEntity
  8
0
  6
Continuous
 62
     7
370
    15
100
AcDbSpline
210
0.0
220
0.0
230
1.0
 70
     8
 71
     3
 72
    10
 73
     6
 74
     0
 42
0.000000001
 43
0.0000000001
 40
0.0
 40
0.0
 40
0.0
 40
0.0
 40
0.1289519741565753
 40
0.2540981380062144
 40
0.2951522563755246
 40
0.2951522563755246
 40
0.2951522563755246
 40
0.2951522563755246
 10
68.04842373149691
 20
30.48221082554661
 30
0.0
 10
68.14391553940914
 20
30.80308216231315
 30
0.0
 10
68.33208086796687
 20
31.43535483394315
 30
0.0
 10
68.6299300567975
 20
32.14222260720659
 30
0.0
 10
68.81779132517708
 20
32.53071936592187
 30
0.0
 10
68.86557794342966
 20
32.62596990542715
 30
0.0
  0
SPLINE
  5
F4
330
1F
100
AcDbEntity
  8
0
  6
Continuous
 62
     7
370
    15
100
AcDbSpline
210
0.0
220
0.0
230
1.0
 70
     8
 71
     3
 72
    13
 73
     9
 74
     0
 42
0.000000001
 43
0.0000000001
 40
0.0
 40
0.0
 40
0.0
 40
0.0
 40
0.0898512714206333
 40
0.173579330389879
 40
0.2503656485610292
 40
0.320499866355524
 40
0.3856928596608822
 40
0.4011542194635779
 40
0.4011542194635779
 40
0.4011542194635779
 40
0.4011542194635779
 10
74.63626156933476
 20
24.36945744716823
 30
0.0
 10
74.30676458515204
 20
24.3746602604432
 30
0.0
 10
73.67022527996878
 20
24.38471132405234
 30
0.0
 10
72.75379710819776
 20
24.45158201780759
 30
0.0
 10
71.9158852676855
 20
24.57148024846045
 30
0.0
 10
71.15440716489884
 20
24.7340211431503
 30
0.0
 10
70.62541050697226
 20
24.89817934480962
 30
0.0
 10
70.34946331124122
 20
25.0052336995405
 30
0.0
 10
70.29686251974901
 20
25.0264930447324
 30
0.0
  0
LINE
  5
F5
330
1F
100
AcDbEntity
  8
0
  6
Continuous
 62
     7
370
    15
100
AcDbLine
 10
84.0746061639
 20
24.3694574472
 30
0.0
 11
74.6362615693
 21
24.3694574472
 31
0.0
  0
SPLINE
  5
F6
330
1F
100
AcDbEntity
  8
0
  6
Continuous
 62
     7
370
    15
100
AcDbSpline
210
0.0
220
0.0
230
1.0
 70
     8
 71
     3
 72
    11
 73
     7
 74
     0
 42
0.000000001
 43
0.0000000001
 40
0.0
 40
0.0
 40
0.0
 40
0.0
 40
0.2603150130971608
 40
0.5089646945542037
 40
0.7545434143127075
 40
1.0
 40
1.0
 40
1.0
 40
1.0
 10
86.88077170446986
 20
25.16126487960066
 30
0.0
 10
86.65563431702849
 20
25.03887846065341
 30
0.0
 10
86.21544848115023
 20
24.79959004775724
 30
0.0
 10
85.51351135781042
 20
24.55118391472043
 30
0.0
 10
84.79902236417027
 20
24.40022230389056
 30
0.0
 10
84.31603818683205
 20
24.37971069880771
 30
0.0
 10
84.07460616392933
 20
24.36945744716823
 30
0.0
  0
SPLINE
  5
F7
330
1F
100
AcDbEntity
  8
0
  6
Continuous
 62
     7
370
    15
100
AcDbSpline
210
0.0
220
0.0
230
1.0
 70
     8
 71
     3
 72
    11
 73
     7
 74
     0
 42
0.000000001
 43
0.0000000001
 40
0.0
 40
0.0
 40
0.0
 40
0.0
 40
0.2506308277938347
 40
0.4986488506007876
 40
0.7466598691285834
 40
1.0
 40
1.0
 40
1.0
 40
1.0
 10
89.16751156933475
 20
27.61270069041148
 30
0.0
 10
89.03109668725322
 20
27.36316001550135
 30
0.0
 10
88.75968903659206
 20
26.86668010591719
 30
0.0
 10
88.22586621743822
 20
26.20520968507682
 30
0.0
 10
87.60035293303122
 20
25.62543111940597
 30
0.0
 10
87.12232584373459
 20
25.31707950077424
 30
0.0
 10
86.88077170446986
 20
25.16126487960066
 30
0.0
  0
SPLINE
  5
103
330
1F
100
AcDbEntity
  8
0
  6
Continuous
 62
     7
370
    15
100
AcDbSpline
210
0.0
220
0.0
230
1.0
 70
     8
 71
     3
 72
     8
 73
     4
 74
     0
 42
0.000000001
 43
0.0000000001
 40
0.8962866529952613
 40
0.8962866529952613
 40
0.8962866529952613
 40
0.8962866529952613
 40
1.0
 40
1.0
 40
1.0
 40
1.0
 10
-78.50569238007785
 20
35.3963788368541
 30
0.0
 10
-78.68765831021355
 20
35.37257511410889
 30
0.0
 10
-78.87155985692587
 20
35.36299263198991
 30
0.0
 10
-79.0554614036382
 20
35.35341014987093
 30
0.0
  0
SPLINE
  5
108
330
1F
100
AcDbEntity
  8
0
  6
Continuous
 62
     7
370
    15
100
AcDbSpline
210
0.0
220
0.0
230
1.0
 70
     8
 71
     3
 72
    13
 73
     9
 74
     0
 42
0.000000001
 43
0.0000000001
 40
0.3430498092832112
 40
0.3430498092832112
 40
0.3430498092832112
 40
0.3430498092832112
 40
0.3675798449208816
 40
0.4879959825403523
 40
0.6099882164444894
 40
0.7353747990487055
 40
0.8648014384755452
 40
1.0
 40
1.0
 40
1.0
 40
1.0
 10
-1.398758015970276
 20
30.39221162647026
 30
0.0
 10
-1.451386895230977
 20
30.30964261549872
 30
0.0
 10
-1.768282857903361
 20
29.82555561423966
 30
0.0
 10
-2.418596915445798
 20
28.97849119015506
 30
0.0
 10
-3.431950234694991
 20
27.91255848091586
 30
0.0
 10
-4.585507327426233
 20
26.94388156400658
 30
0.0
 10
-5.870626470922639
 20
26.0591612341241
 30
0.0
 10
-6.807421614746093
 20
25.56969667140532
 30
0.0
 10
-7.286035727962534
 20
25.31962636608715
 30
0.0
  0
SPLINE
  5
10A
330
1F
100
AcDbEntity
  8
0
  6
Continuous
 62
     7
370
    15
100
AcDbSpline
210
0.0
220
0.0
230
1.0
 70
     8
 71
     3
 72
    12
 73
     8
 74
     0
 42
0.000000001
 43
0.0000000001
 40
0.7362033889952336
 40
0.7362033889952336
 40
0.7362033889952336
 40
0.7362033889952336
 40
0.7544052385459267
 40
0.8088979221857353
 40
0.8676388160746245
 40
0.9309903659347007
 40
1.0
 40
1.0
 40
1.0
 40
1.0
 10
67.8860147871612
 20
27.6127006904
 30
0.0
 10
67.87110490497518
 20
27.67783062078994
 30
0.0
 10
67.81771601512334
 20
27.93941919325075
 30
0.0
 10
67.76017718387372
 20
28.41933367419
 30
0.0
 10
67.77717861805283
 20
29.06872456934124
 30
0.0
 10
67.87656030440871
 20
29.7637528137351
 30
0.0
 10
67.98952625900856
 20
30.23599578316301
 30
0.0
 10
68.04842373149691
 20
30.48221082554661
 30
0.0
  0
SPLINE
  5
10B
330
1F
100
AcDbEntity
  8
0
  6
Continuous
 62
     7
370
    15
100
AcDbSpline
210
0.0
220
0.0
230
1.0
 70
     8
 71
     3
 72
    12
 73
     8
 74
     0
 42
0.000000001
 43
0.0000000001
 40
0.4432709434324559
 40
0.4432709434324559
 40
0.4432709434324559
 40
0.4432709434324559
 40
0.4999339023323615
 40
0.6220801928133288
 40
0.7452551756917369
 40
0.8710480258434243
 40
1.0
 40
1.0
 40
1.0
 40
1.0
 10
69.44279008391267
 20
33.62338292306616
 30
0.0
 10
69.52426280393317
 20
33.74583627786738
 30
0.0
 10
69.79030526672571
 20
34.12638891895479
 30
0.0
 10
70.2817891976977
 20
34.73786841929476
 30
0.0
 10
70.9511210953959
 20
35.43143743381199
 30
0.0
 10
71.69189650016058
 20
36.07701139036124
 30
0.0
 10
72.23785377107053
 20
36.45033088220738
 30
0.0
 10
72.51421765041583
 20
36.63930542014121
 30
0.0
  0
SPLINE
  5
10C
330
1F
100
AcDbEntity
  8
0
  6
Continuous
 62
     7
370
    15
100
AcDbSpline
210
0.0
220
0.0
230
1.0
 70
     8
 71
     3
 72
    13
 73
     9
 74
     0
 42
0.000000001
 43
0.0000000001
 40
0.3249262869981045
 40
0.3249262869981045
 40
0.3249262869981045
 40
0.3249262869981045
 40
0.3955653694256879
 40
0.5300186430747007
 40
0.6607925238116312
 40
0.7797134523668192
 40
0.8916936700094265
 40
1.0
 40
1.0
 40
1.0
 40
1.0
 10
68.86557794342961
 20
32.62596990542709
 30
0.0
 10
68.77575169493485
 20
32.50102590381057
 30
0.0
 10
68.50100977816365
 20
32.14853802735867
 30
0.0
 10
67.98606155065188
 20
31.62623180104754
 30
0.0
 10
67.32338159382907
 20
31.11097341465523
 30
0.0
 10
66.62881946393775
 20
30.73454278815844
 30
0.0
 10
65.92170767685958
 20
30.49746356685492
 30
0.0
 10
65.44157895138855
 20
30.46600532336914
 30
0.0
 10
65.2055183260915
 20
30.45053852824931
 30
0.0
  0
LINE
  5
10D
330
1F
100
AcDbEntity
  8
0
  6
Continuous
 62
     7
370
    15
100
AcDbLine
 10
15.62317035304144
 20
27.6127006904
 30
0.0
 11
19.7418358937
 21
27.6127006904
 31
0.0
  0
ARC
  5
17A
330
1F
100
AcDbEntity
  8
0
  6
Continuous
 62
     7
370
    15
100
AcDbCircle
 10
-72.36670602982988
 20
44.36945744720001
 30
0.0
 40
9.999999999999998
100
AcDbArc
 50
90.0
 51
151.6410365538213
  0
ARC
  5
17B
330
1F
100
AcDbEntity
  8
0
  6
Continuous
 62
     7
370
    15
100
AcDbCircle
 10
-68.47097825543693
 20
39.0991871769
 30
0.0
 40
10.0
100
AcDbArc
 50
90.00000000000006
 51
151.9668449084365
  0
ENDSEC
  0
SECTION
  2
OBJECTS
  0
DICTIONARY
  5
C
330
0
100
AcDbDictionary
281
     1
  3
ACAD_GROUP
350
D
  3
ACAD_IMAGE_VARS
350
158
  3
ACAD_LAYOUT
350
1A
  3
ACAD_MLINESTYLE
350
17
  3
ACAD_PLOTSETTINGS
350
19
  3
ACAD_PLOTSTYLENAME
350
E
  3
ACAD_SCALELIST
350
118
  3
AcDbVariableDictionary
350
101
  3
APPDATA
350
156
  3
DWGPROPS
350
17C
  0
DICTIONARY
  5
104
330
1F
100
AcDbDictionary
280
     1
281
     1
  3
ACAD_SORTENTS
360
105
  0
DICTIONARY
  5
D
102
{ACAD_REACTORS
330
C
102
}
330
C
100
AcDbDictionary
281
     1
  0
RASTERVARIABLES
  5
158
102
{ACAD_REACTORS
330
C
102
}
330
C
100
AcDbRasterVariables
 90
        0
 70
     1
 71
     1
 72
     1
  0
DICTIONARY
  5
1A
102
{ACAD_REACTORS
330
C
102
}
330
C
100
AcDbDictionary
281
     1
  3
Layout1
350
1E
  3
Layout2
350
26
  3
Model
350
22
  0
DICTIONARY
  5
17
102
{ACAD_REACTORS
330
C
102
}
330
C
100
AcDbDictionary
281
     1
  3
Standard
350
18
  0
DICTIONARY
  5
19
102
{ACAD_REACTORS
330
C
102
}
330
C
100
AcDbDictionary
281
     1
  0
ACDBDICTIONARYWDFLT
  5
E
102
{ACAD_REACTORS
330
C
102
}
330
C
100
AcDbDictionary
281
     1
  3
Normal
350
F
100
AcDbDictionaryWithDefault
340
F
  0
DICTIONARY
  5
118
102
{ACAD_REACTORS
330
C
102
}
330
C
100
AcDbDictionary
281
     1
  3
A0
350
119
  3
A1
350
11A
  3
A2
350
11B
  3
A3
350
11C
  3
A4
350
11D
  3
A5
350
11E
  3
A6
350
11F
  3
A7
350
120
  3
A8
350
121
  3
A9
350
122
  3
B0
350
123
  3
B1
350
124
  3
B2
350
125
  3
B3
350
126
  3
B4
350
127
  3
B5
350
128
  3
B6
350
129
  3
B7
350
12A
  3
B8
350
12B
  3
B9
350
12C
  3
C0
350
12D
  3
C1
350
12E
  3
C2
350
12F
  3
C3
350
130
  3
C4
350
131
  3
C5
350
132
  3
C6
350
133
  3
C7
350
134
  3
C8
350
135
  3
C9
350
136
  3
D0
350
137
  3
D1
350
138
  3
D2
350
139
  0
DICTIONARY
  5
101
102
{ACAD_REACTORS
330
C
102
}
330
C
100
AcDbDictionary
281
     1
  3
DIMASSOC
350
10E
  3
PROJECTNAME
350
10F
  0
DICTIONARY
  5
156
102
{ACAD_REACTORS
330
C
102
}
330
C
100
AcDbDictionary
281
     1
  0
XRECORD
  5
17C
102
{ACAD_REACTORS
330
C
102
}
330
C
100
AcDbXrecord
280
     1
  1
DWGPROPS COOKIE
  2

  3

  4

  6

  7

  8
konrad
  9

300
=
301
=
302
=
303
=
304
=
305
=
306
=
307
=
308
=
309
=
 40
0.0
 41
2456766.350322373
 42
2456766.411047095
  1

 90
        0
  0
SORTENTSTABLE
  5
105
102
{ACAD_REACTORS
330
104
102
}
330
104
100
AcDbSortentsTable
330
1F
331
44
  5
44
331
45
  5
45
331
46
  5
46
331
47
  5
47
331
48
  5
48
331
49
  5
49
331
4A
  5
4A
331
4B
  5
4B
331
4C
  5
4C
331
4D
  5
4D
331
4E
  5
4E
331
4F
  5
4F
331
50
  5
50
331
51
  5
51
331
52
  5
52
331
53
  5
53
331
54
  5
54
331
55
  5
55
331
56
  5
56
331
57
  5
58
331
58
  5
59
331
59
  5
5A
331
5A
  5
5B
331
5B
  5
5C
331
5C
  5
5D
331
5D
  5
5E
331
5E
  5
5F
331
5F
  5
60
331
60
  5
61
331
61
  5
62
331
62
  5
63
331
63
  5
64
331
64
  5
65
331
65
  5
66
331
66
  5
67
331
67
  5
68
331
68
  5
6A
331
69
  5
6B
331
6A
  5
6C
331
6B
  5
6D
331
6C
  5
6E
331
6D
  5
6F
331
6E
  5
70
331
6F
  5
71
331
70
  5
72
331
71
  5
73
331
72
  5
74
331
73
  5
75
331
74
  5
76
331
75
  5
77
331
76
  5
78
331
77
  5
79
331
78
  5
7A
331
79
  5
7B
331
7A
  5
7C
331
7B
  5
7D
331
7C
  5
7E
331
7D
  5
7F
331
7E
  5
80
331
7F
  5
81
331
80
  5
82
331
81
  5
83
331
82
  5
84
331
83
  5
85
331
84
  5
86
331
85
  5
87
331
86
  5
88
331
87
  5
89
331
88
  5
8A
331
89
  5
8B
331
8A
  5
8C
331
8B
  5
8D
331
8C
  5
8E
331
8D
  5
8F
331
8E
  5
90
331
8F
  5
91
331
90
  5
92
331
91
  5
93
331
92
  5
94
331
93
  5
95
331
94
  5
96
331
95
  5
97
331
96
  5
98
331
97
  5
99
331
98
  5
9A
331
99
  5
9B
331
9A
  5
9C
331
9B
  5
9D
331
9C
  5
9E
331
9D
  5
9F
331
9E
  5
A0
331
9F
  5
A1
331
A0
  5
A2
331
A1
  5
A4
331
A2
  5
A5
331
A3
  5
A6
331
A4
  5
A7
331
A5
  5
A8
331
A6
  5
A9
331
A7
  5
AA
331
A8
  5
AB
331
A9
  5
AC
331
AA
  5
AD
331
AB
  5
AE
331
AC
  5
AF
331
AD
  5
B0
331
AE
  5
B1
331
AF
  5
B2
331
B0
  5
B3
331
B1
  5
B4
331
B2
  5
B5
331
B3
  5
B6
331
B4
  5
B7
331
B5
  5
B8
331
B6
  5
B9
331
B7
  5
BA
331
B8
  5
BB
331
B9
  5
BC
331
BA
  5
BD
331
BB
  5
BE
331
BC
  5
BF
331
BD
  5
C0
331
BE
  5
C1
331
BF
  5
C2
331
C0
  5
C5
331
C3
  5
C6
331
C4
  5
C7
331
C5
  5
C8
331
C6
  5
C9
331
C7
  5
CA
331
C8
  5
CB
331
C9
  5
CC
331
CA
  5
CD
331
CB
  5
CE
331
CC
  5
CF
331
CD
  5
D0
331
CE
  5
D1
331
CF
  5
D2
331
D0
  5
D3
331
D1
  5
D4
331
D2
  5
D5
331
D3
  5
D6
331
D4
  5
D7
331
D5
  5
D8
331
D6
  5
D9
331
D7
  5
DA
331
D8
  5
DB
331
D9
  5
DC
331
DA
  5
DD
331
DB
  5
DF
331
DD
  5
E0
331
DE
  5
E1
331
DF
  5
E2
331
E0
  5
E3
331
E1
  5
E4
331
E2
  5
E5
331
E3
  5
E6
331
E4
  5
E7
331
E5
  5
E9
331
E6
  5
EA
331
E7
  5
EB
331
E8
  5
EC
331
E9
  5
ED
331
EA
  5
EE
331
EB
  5
EF
331
EC
  5
F0
331
ED
  5
F1
331
EE
  5
F2
331
EF
  5
F3
331
F0
  5
F4
331
F1
  5
F5
331
F2
  5
F6
331
F3
  5
F7
331
F4
  5
108
331
F5
  5
10B
331
F6
  5
10C
331
F7
  5
10D
331
103
  5
69
331
108
  5
57
331
10B
  5
103
331
10C
  5
E8
331
10D
  5
A3
  0
LAYOUT
  5
1E
102
{ACAD_REACTORS
330
1A
102
}
330
1A
100
AcDbPlotSettings
  1

  2
none_device
  4

  6

 40
0.0
 41
0.0
 42
0.0
 43
0.0
 44
0.0
 45
0.0
 46
0.0
 47
0.0
 48
0.0
 49
0.0
140
0.0
141
0.0
142
1.0
143
1.0
 70
   688
 72
     0
 73
     0
 74
     5
  7

 75
    16
147
1.0
148
0.0
149
0.0
100
AcDbLayout
  1
Layout1
 70
     1
 71
     1
 10
0.0
 20
0.0
 11
420.0
 21
297.0
 12
0.0
 22
0.0
 32
0.0
 14
1.000000000000000E+20
 24
1.000000000000000E+20
 34
1.000000000000000E+20
 15
-1.000000000000000E+20
 25
-1.000000000000000E+20
 35
-1.000000000000000E+20
146
0.0
 13
0.0
 23
0.0
 33
0.0
 16
1.0
 26
0.0
 36
0.0
 17
0.0
 27
1.0
 37
0.0
 76
     0
330
1B
  0
LAYOUT
  5
26
102
{ACAD_REACTORS
330
1A
102
}
330
1A
100
AcDbPlotSettings
  1

  2
none_device
  4

  6

 40
0.0
 41
0.0
 42
0.0
 43
0.0
 44
0.0
 45
0.0
 46
0.0
 47
0.0
 48
0.0
 49
0.0
140
0.0
141
0.0
142
1.0
143
1.0
 70
   688
 72
     0
 73
     0
 74
     5
  7

 75
    16
147
1.0
148
0.0
149
0.0
100
AcDbLayout
  1
Layout2
 70
     1
 71
     2
 10
0.0
 20
0.0
 11
0.0
 21
0.0
 12
0.0
 22
0.0
 32
0.0
 14
0.0
 24
0.0
 34
0.0
 15
0.0
 25
0.0
 35
0.0
146
0.0
 13
0.0
 23
0.0
 33
0.0
 16
1.0
 26
0.0
 36
0.0
 17
0.0
 27
1.0
 37
0.0
 76
     0
330
23
  0
LAYOUT
  5
22
102
{ACAD_REACTORS
330
1A
102
}
330
1A
100
AcDbPlotSettings
  1

  2
none_device
  4
ANSI_A_(11.00_x_8.50_Inches)
  6

 40
6.349999999999999
 41
19.05
 42
6.350005079999999
 43
19.05000254
 44
279.4
 45
215.9
 46
145.1975014595
 47
33.92946551610001
 48
0.0
 49
0.0
140
0.0
141
0.0
142
0.0558338205
143
1.0
 70
  1696
 72
     0
 73
     0
 74
     0
  7

 75
     0
147
0.0179189148
148
0.0
149
0.0
100
AcDbLayout
  1
Model
 70
     1
 71
     0
 10
0.0
 20
0.0
 11
420.0
 21
297.0
 12
0.0
 22
0.0
 32
0.0
 14
-105.875562755
 24
23.153241231
 34
0.0
 15
89.1675115693
 25
54.3694574472
 35
0.0
146
0.0
 13
0.0
 23
0.0
 33
0.0
 16
1.0
 26
0.0
 36
0.0
 17
0.0
 27
1.0
 37
0.0
 76
     0
330
1F
331
110
  0
MLINESTYLE
  5
18
102
{ACAD_REACTORS
330
17
102
}
330
17
100
AcDbMlineStyle
  2
STANDARD
 70
     0
  3

 62
   256
 51
90.0
 52
90.0
 71
     2
 49
0.5
 62
   256
  6
BYLAYER
 49
-0.5
 62
   256
  6
BYLAYER
  0
ACDBPLACEHOLDER
  5
F
102
{ACAD_REACTORS
330
E
102
}
330
E
  0
SCALE
  5
119
102
{ACAD_REACTORS
330
118
102
}
330
118
100
AcDbScale
 70
     0
300
1:1
140
1.0
141
1.0
290
     1
  0
SCALE
  5
11A
102
{ACAD_REACTORS
330
118
102
}
330
118
100
AcDbScale
 70
     0
300
1:2
140
1.0
141
2.0
290
     0
  0
SCALE
  5
11B
102
{ACAD_REACTORS
330
118
102
}
330
118
100
AcDbScale
 70
     0
300
1:4
140
1.0
141
4.0
290
     0
  0
SCALE
  5
11C
102
{ACAD_REACTORS
330
118
102
}
330
118
100
AcDbScale
 70
     0
300
1:5
140
1.0
141
5.0
290
     0
  0
SCALE
  5
11D
102
{ACAD_REACTORS
330
118
102
}
330
118
100
AcDbScale
 70
     0
300
1:8
140
1.0
141
8.0
290
     0
  0
SCALE
  5
11E
102
{ACAD_REACTORS
330
118
102
}
330
118
100
AcDbScale
 70
     0
300
1:10
140
1.0
141
10.0
290
     0
  0
SCALE
  5
11F
102
{ACAD_REACTORS
330
118
102
}
330
118
100
AcDbScale
 70
     0
300
1:16
140
1.0
141
16.0
290
     0
  0
SCALE
  5
120
102
{ACAD_REACTORS
330
118
102
}
330
118
100
AcDbScale
 70
     0
300
1:20
140
1.0
141
20.0
290
     0
  0
SCALE
  5
121
102
{ACAD_REACTORS
330
118
102
}
330
118
100
AcDbScale
 70
     0
300
1:30
140
1.0
141
30.0
290
     0
  0
SCALE
  5
122
102
{ACAD_REACTORS
330
118
102
}
330
118
100
AcDbScale
 70
     0
300
1:40
140
1.0
141
40.0
290
     0
  0
SCALE
  5
123
102
{ACAD_REACTORS
330
118
102
}
330
118
100
AcDbScale
 70
     0
300
1:50
140
1.0
141
50.0
290
     0
  0
SCALE
  5
124
102
{ACAD_REACTORS
330
118
102
}
330
118
100
AcDbScale
 70
     0
300
1:100
140
1.0
141
100.0
290
     0
  0
SCALE
  5
125
102
{ACAD_REACTORS
330
118
102
}
330
118
100
AcDbScale
 70
     0
300
2:1
140
2.0
141
1.0
290
     0
  0
SCALE
  5
126
102
{ACAD_REACTORS
330
118
102
}
330
118
100
AcDbScale
 70
     0
300
4:1
140
4.0
141
1.0
290
     0
  0
SCALE
  5
127
102
{ACAD_REACTORS
330
118
102
}
330
118
100
AcDbScale
 70
     0
300
8:1
140
8.0
141
1.0
290
     0
  0
SCALE
  5
128
102
{ACAD_REACTORS
330
118
102
}
330
118
100
AcDbScale
 70
     0
300
10:1
140
10.0
141
1.0
290
     0
  0
SCALE
  5
129
102
{ACAD_REACTORS
330
118
102
}
330
118
100
AcDbScale
 70
     0
300
100:1
140
100.0
141
1.0
290
     0
  0
SCALE
  5
12A
102
{ACAD_REACTORS
330
118
102
}
330
118
100
AcDbScale
 70
     0
300
1/128" = 1'-0"
140
0.0078125
141
12.0
290
     0
  0
SCALE
  5
12B
102
{ACAD_REACTORS
330
118
102
}
330
118
100
AcDbScale
 70
     0
300
1/64" = 1'-0"
140
0.015625
141
12.0
290
     0
  0
SCALE
  5
12C
102
{ACAD_REACTORS
330
118
102
}
330
118
100
AcDbScale
 70
     0
300
1/32" = 1'-0"
140
0.03125
141
12.0
290
     0
  0
SCALE
  5
12D
102
{ACAD_REACTORS
330
118
102
}
330
118
100
AcDbScale
 70
     0
300
1/16" = 1'-0"
140
0.0625
141
12.0
290
     0
  0
SCALE
  5
12E
102
{ACAD_REACTORS
330
118
102
}
330
118
100
AcDbScale
 70
     0
300
3/32" = 1'-0"
140
0.09375
141
12.0
290
     0
  0
SCALE
  5
12F
102
{ACAD_REACTORS
330
118
102
}
330
118
100
AcDbScale
 70
     0
300
1/8" = 1'-0"
140
0.125
141
12.0
290
     0
  0
SCALE
  5
130
102
{ACAD_REACTORS
330
118
102
}
330
118
100
AcDbScale
 70
     0
300
3/16" = 1'-0"
140
0.1875
141
12.0
290
     0
  0
SCALE
  5
131
102
{ACAD_REACTORS
330
118
102
}
330
118
100
AcDbScale
 70
     0
300
1/4" = 1'-0"
140
0.25
141
12.0
290
     0
  0
SCALE
  5
132
102
{ACAD_REACTORS
330
118
102
}
330
118
100
AcDbScale
 70
     0
300
3/8" = 1'-0"
140
0.375
141
12.0
290
     0
  0
SCALE
  5
133
102
{ACAD_REACTORS
330
118
102
}
330
118
100
AcDbScale
 70
     0
300
1/2" = 1'-0"
140
0.5
141
12.0
290
     0
  0
SCALE
  5
134
102
{ACAD_REACTORS
330
118
102
}
330
118
100
AcDbScale
 70
     0
300
3/4" = 1'-0"
140
0.75
141
12.0
290
     0
  0
SCALE
  5
135
102
{ACAD_REACTORS
330
118
102
}
330
118
100
AcDbScale
 70
     0
300
1" = 1'-0"
140
1.0
141
12.0
290
     0
  0
SCALE
  5
136
102
{ACAD_REACTORS
330
118
102
}
330
118
100
AcDbScale
 70
     0
300
1-1/2" = 1'-0"
140
1.5
141
12.0
290
     0
  0
SCALE
  5
137
102
{ACAD_REACTORS
330
118
102
}
330
118
100
AcDbScale
 70
     0
300
3" = 1'-0"
140
3.0
141
12.0
290
     0
  0
SCALE
  5
138
102
{ACAD_REACTORS
330
118
102
}
330
118
100
AcDbScale
 70
     0
300
6" = 1'-0"
140
6.0
141
12.0
290
     0
  0
SCALE
  5
139
102
{ACAD_REACTORS
330
118
102
}
330
118
100
AcDbScale
 70
     0
300
1'-0" = 1'-0"
140
12.0
141
12.0
290
     0
  0
DICTIONARYVAR
  5
10E
102
{ACAD_REACTORS
330
101
102
}
330
101
100
DictionaryVariables
280
     0
  1
1
  0
DICTIONARYVAR
  5
10F
102
{ACAD_REACTORS
330
101
102
}
330
101
100
DictionaryVariables
280
     0
  1

  0
ENDSEC
  0
EOF

